lack Label Society - Stronger Than Death

Tabbed by:pie
e-mail: [email protected]



Dropped B

E------------------------------------------------------------------------
B------------------------------------------------------------------------
G--8----------8-9-8---7-----------------/8-----------8-9-8----7----------
D------------------------------------------------------------------------
A--6----------6-7-6---5-----------------/6-----------6-7-6----5----------
B--0---0--0---0~~~~---0------00--00----~~0---0--0----0~~~~----0----2--0--
                                                                  ph


E-----------------------------------------------------------------
B-----------------------------------------------------------------
G-----------------------------------------------------------------
D-----------------------------------------------------------------
A-----------------------------------------------------------------
B-6-5-3-0---6-5-3--00---6-5-0--0-3---0--3--0--6-5-3-0---6-5-3--00- repeat
                                 ph     ph


E-----------------------------------------------------------------
B-----------------------------------------------------------------
G-----------------------------------------------------------------
D-----------------------------------------------------------------
A-----------------------------------------------------------------
B--3-5-3-5-3-5-3-5-3-3-3-5-3-5-3-3-3-5-3-3-3-5-3-3-3-5-----------
  |~~~~~~~~~~~~~~~~~~~~pinch harmonics~~~~~~~~~~~~~~~|


E-----------------------------------------------------------------
B-----------------------------------------------------------------
G-----------------------------------------------------------------
D-----------------------------------------------------------------
A-----------------------------------------------------------------
B-0-0-0--0-0-0--0-0-0----3^5-5---0-0-0--0-0-0--0-0-0--6-5---------
                       ^=hammer on  


Solo
  |~~~~~~~~~~trill~~~~~~~~~|
E---------|---------|--------|-----------------------------------------
B---------|---------|--------|-----------------------------------------
G--9--11--|--8--10--|--7--9--|--4--9-9-9-9-7--------repeat trill-------
D---------|---------|--------|---------------9-7~----------------------
A---------|---------|--------|-----------------------------------------
B---------|---------|--------|-----------------------------------------


E-----------14-12-9-14-12-9-12-11-9-12-11-9-----------------------
B-------------------------------------------12-11-9-12-11-9-------
G--4~-------------------------------------------------------------
D-----------------------------------------------------------------
A-----------------------------------------------------------------
B------3-3--------------------------------------------------------


E-------------------14-12-9-14-12-9----------------------------9--
B------------------------------------12-11-9-12-11-9---11~~-------
G--12-11-9-12-11-9------------------------------------------------
D-----------------------------------------------------------------
A-----------------------------------------------------------------
B-----------------------------------------------------------------


E--14-12-9-14-12-9-12-11-9-12-11-9----------------------------------
B----------------------------------12-11-9-12-11-9------------------
G---------------------------------------------------12-11-9-12-11-9-
D-------------------------------------------------------------------
A-------------------------------------------------------------------
B-------------------------------------------------------------------


E--14-12-9-14-12-9-12-11-9-12-11-9--12~~--------------------------------
B-----------------------------------------------------------------------
G----------------------------------------4-6-9-6-9-11-9-11-13-11--13~~--
D-----------------------------------------------------------------------
A-----------------------------------------------------------------------
B-----------------------------------------------------------------------

E-------------------------------------------------------------------------
B-21-21~~-----------------------------------------------------------------
G---------17-17-5-5-5-5-5--15-15--3-3-15-15-3-3-3-3-15-15-3-3-15-15-3-3---
D-------------------------------------------------------------------------
A-------------------------------------------------------------------------
B-------------------------------------------------------------------------


Текст, аккорды и табулатура для песни "Stronger Than Death", исполняет "Black Label Society".
Используемые в песне аккорды можно найти в разделе Как брать аккорды. Аккорды для шестиструнной гитары. Другие песни можно найти на нашем сайте, воспользовавшись алфавитным указателем вверху страницы.


 
Ошибка в тексте? Выделите ошибку и нажмите Ctrl+Enter