Artist: Black Label Society
Album: 1919 Eternal
Title: Genocide Junkies

From: www.BlackLabelSociety.net

Tabbed By: Xes ([email protected])


Tuning: down 1/2 step, drop low E to B 
(Bb, Ab, Db, Gb, Bb, Eb)

Intro and verse
|-----------------------|--------------------------|
|-----------------------|--------------------------|
|-----------------------|--------------------------|
|-----------------------|--------------------------|
|-----------------------|--------------------------|
|-0-2-2-5-4-2--2--5-4-2-|---2-5-4-2-0-2-2-0-2-2----|


|-----------------------|--------------------------|
|-----------------------|--------------------------|
|-----------------------|--------------------------|
|-----------------------|--------------------------|
|-----------------------|--------------------------|
|-0-2-2-5-4-2---2-5-4-2-|--2-5-4-2-[5]b7r==5--0----|
                                   P.H.

 Pre-Chorus                             3x
||----------------------|------0--------||--------------------------|
||o---------------------|------0-------o||--------------------------|
||----------------------|---------4-----||--------------------------|
||-------4-/5-4--2h4-2-|-(2)--2--4-----||------4-/5-4--2h4p2------|
||o-------------------2-|-(2)--2--2----o||---------------------4----|
||--2-2-----------------|---------0-----||-2-2----------------------|
                      ^^^^^^
                    notes tied 


 PM--|                   PM--|
|-----------------------|--------------------------|
|-----------------------|--------------------------|
|-----------------------|--------------------------|
|------4-/5-4--2h4p2---|------4-/5-4--2h4p2------|
|---------------------4-|---------------------4----|
|-0--0------------------|-0--0---------------------|


|-----------------------------|-----------------------------|
|-----------------------------|-----------------------------|
|-----------------------------|-----4-----------------------|
|-4-/5-4-2-----4-/5-4-2-----|-4-6---6-4-2-4-2---2--------|
|-----------4p2-----------4p2-|------------------4---4-2----|
|-----------------------------|-----------------------------|


   Chorus                                  4x
||--------------------------------0--------||
||o-------------------------------0-------o||
||-----------------------------------4-----||
||--------------------------------2--4-----||
||o-----------11-----------11---2--2----o||
||--0-2-2-2---------0-2-2-2----------------||


  
   4/4
          PM|       PM----|               PM|         PM|       PM|  ~~~
||----------------------|---------------------|-----------------------------||
||o---------------------|---------------------|----------------------------o||
||----------------------|---------------------|-----------------------------||
||--6-(6)-----6-(6)-----|---6-(6)---6-(6)-----|-6-(6)-----6-(6)-------------||
||o-4-(4)-----4-(4)-----|---4-(4)---4-(4)-----|-4-(4)-----4-(4)------------o||
||--0h=2--2-2-0h=2--2-2-|-2-0h=2--2-0h=2--2-2-|-0h=2--2-2-0h=2--2-7-(7)-----||


                                  PM-|      PM----|               PM|
||------------------------|---------------------|----------------------||
||o-----------------------|---------------------|---------------------o||
||--9---9---7---7---7--7--|---------------------|----------------------||
||--9---9---7---7---7--7--|-6-(6)-----6-(6)-----|---6-(6)---6-(6)------||
||o-7---7---5---5---5--5--|-4-(4)-----4-(4)-----|---4-(4)---4-(4)-----o||
||------------------------|-0h=2--2-2-0h=2--2-2-|-2-0h=2--2-0h=2--2-2--|| 



----------------------------------------------------------------------------


() notes are tied notes.  You don't play them twice, but let them ring
(as you do the hammer-on)


the E chord played like 

--0--
--0--
----- 


Текст, аккорды и табулатура для песни "Genocide Junkies", исполняет "Black Label Society".
Используемые в песне аккорды можно найти в разделе Как брать аккорды. Аккорды для шестиструнной гитары. Другие песни можно найти на нашем сайте, воспользовавшись алфавитным указателем вверху страницы.


 
Ошибка в тексте? Выделите ошибку и нажмите Ctrl+Enter