Author/Artist: Black Label Society
Title: Bored To Tears
Album: Sonic Brew
Tabbed by: Sqweeky


Standard tuning

-3--------------|-------------------|-----------------------------------------
-5--------------|----------7--5----|-----------------------------------------
-5--------------|-------------------|-----------------------------------------
----------------|---5-/-7--7--5----|-----------------------------------------
----------------|-------------------|-----------------------------------------
----------------|-------------------|-----------------------------------------
 w/wah                                pick scrapes

------------------------------------------------------------------------------
------------------------------------------------------------------------------
------------------------------------------------------------------------------
------------------------------------------------------------------------------
-3-p-0--0--5-p-0--0--3-p-0--0--5-p-0--0--3-p-0--5-p-0-------------------------
------------------------------------------------------------------------------
 verse riff (guitar doubled by distorted bass)

------------------------------------------------------------------------------
------------------------------------------------------------------------------
------------------------------------------------------------------------------
------------------------------------------------------------------------------
-3-p-0--0--5-p-0--0--3-p-0--0--5-p-0--0--3-p-0--5-p-0-------------------------
------------------------------------------------------------------------------
 chorus riff

---------------------------|-------------------------|------------------------
---------------------------|-------------------------|------------------------
---------------------------|-------------------------|-----8-------8----------
---------------------------|-------------------------|-----8-------8----------
-3-p-0--0--5-p-0--0--3-p-0-|-0--0--0--0--0--0--0--0--|--0--6----0--6----------
---------------------------|-------------------------|------------------------
 chorus riff (con't.)        ending 1

|-----------------------------------------------------------------------------
|-----------------------------------------------------------------------------
|-----------------------------------------------------------------------------
|-----------------------------------------------------------------------------
|-0--0----0----0-----0--3--5b~--0--3--5b~---0--0----0----0--0---5br~-3-5br~-3-
|-----------------------------------------------------------------------------
| interlude riff
|
|-----------------------------------------------------------------------------
|-----------------------------------------------------------------------------
|-----------------------------------------------------------------------------
|-------------xxxxxx----------------------------------------------------------
|-------------xxxxxx----------------------------------------------------------
|-------------xxxxxx----------------------------------------------------------
  fill (w/wah)o    +

------------------------------------------------------------------------------
------------------------------------------------------------------------------
------4-------2--------------------trill--------------------------------------
--4-------4-----------4--------3---2(323)----0--------------------------------
-------------------2-------2--------------------------------------------------
------------------------------------------------------------------------------


Текст, аккорды и табулатура для песни "Bored To Tears", исполняет "Black Label Society".
Используемые в песне аккорды можно найти в разделе Как брать аккорды. Аккорды для шестиструнной гитары. Другие песни можно найти на нашем сайте, воспользовавшись алфавитным указателем вверху страницы.


 
Ошибка в тексте? Выделите ошибку и нажмите Ctrl+Enter