0:00  Main Verse Riff
E ----------------------------------------------------------|
B ----------------------------------------------------------|
G -----4-4-4-----2-2-2--5-5-5--4-4-4------------------------|
D -----5-5-5-----3-3-3--5-5-5--5-5-5------------------------|
A -----5-5-5-----3-3-3--3-3-3--5-5-5------------------------|
E -----3-3-3-----1-1-1---------3-3-3------------------------|

   In-between chords there are little fills and string
   bends. They're all on played by the same guitar.

E ----------------------------------------------------------|
B ----------------------------------------------------------|
G -----2-2-2--5-5-5--4-4-4----5b^---------------------------|
D -----3-3-3--5-5-5--5-5-5----------------------------------|
A -----3-3-3--3-3-3--5-5-5----------------------------------|
E -----1-1-1---------3-3-3----------------------------------|

                  Play with slide
E ----------------------------- v -------------------------|
B -----------------------------1012-------------------------|
G -----2-2-2--5-5-5--4-4-4-----1012-------------------------|
D -----3-3-3--5-5-5--5-5-5----------------------------------|
A -----3-3-3--3-3-3--5-5-5----------------------------------|
E -----1-1-1---------3-3-3----------------------------------|

E ----------------------------------------------------------|
B ----------------------------------------------------------|
G -----2-2-2--5-5-5--4-4-4----------------------------------|   x3
D -----3-3-3--5-5-5--5-5-5----------------------------------|
A -----3-3-3--3-3-3--5-5-5----------------------------------|
E -----1-1-1---------3-3-3----------------------------------|

E ----------------------------------------------------------|
B ----------------------------------------------------------|
G -----2-2-2--5-5-5--4-4-4-?--5b^---------------------------|
D -----3-3-3--5-5-5--5-5-5----------------------------------|
A -----3-3-3--3-3-3--5-5-5----------------------------------|
E -----1-1-1---------3-3-3----------------------------------|

E ----------------------------------------------------------|
B ----------------------------------------------------------|
G -----2-2-2--5-5-5--4-4-4----------------------------------|   x5
D -----3-3-3--5-5-5--5-5-5----------------------------------|
A -----3-3-3--3-3-3--5-5-5----------------------------------|
E -----1-1-1---------3-3-3----------------------------------|

   0:49		Chorus
E ----------------------------------------------------------|
B ----------------------------------------------------------|
G ----------------------------------------------------------|   x2
D ----------------------------------------------------------|
A -------------1-3-3-------1-3-3--1-3-3---------------------|
E --1-3-3--------------------------------1-3-3--------------|

E ----------------------------------------------------------|
B ----------------------------------------------------------|
G ----------------------------------------------5b^---------|
D ----------------------------------------------------------|
A -------------1-3-3-------1-3-3--1-3-3---------------------|
E --1-3-3--------------------------------1-3-3--------------|

E ----------------------------------------------------------|
B ----------------------------------------------------------|
G -----4-4-4-x--5b^--2-2-2--5-5-5--4-4-4x?-5b^--------------|
D -----5-5-5-x-------3-3-3--5-5-5--5-5-5x-------------------|
A -----5-5-5-x-------3-3-3--3-3-3--5-5-5x-------------------|
E -----3-3-3-x-------1-1-1---------3-3-3x-------------------|

                  Play with slide
E ---------------------------- v ----------------------------|
B -----------------------------1012--------------------------|
G -----2-2-2--5-5-5--4-4-4-----1012--------------------------|
D -----3-3-3--5-5-5--5-5-5-----------------------------------|
A -----3-3-3--3-3-3--5-5-5-----------------------------------|
E -----1-1-1---------3-3-3-----------------------------------|

E ----------------------------------------------------------|
B ----------------------------------------------------------|
G -----2-2-2--5-5-5--4-4-4-----5b^--------------------------|
D -----3-3-3--5-5-5--5-5-5----------------------------------|
A -----3-3-3--3-3-3--5-5-5----------------------------------|
E -----1-1-1---------3-3-3----------------------------------|

E ----------------------------------------------------------|
B ----------------------------------------------------------|
G -----2-2-2--5-5-5--4-4-4----------------------------------|   x2
D -----3-3-3--5-5-5--5-5-5----------------------------------|
A -----3-3-3--3-3-3--5-5-5----------------------------------|
E -----1-1-1---------3-3-3----------------------------------|

E ----------------------------------------------------------|
B ----------------------------------------------------------|
G -----2-2-2--5-5-5--4-4-4-?--5b^rv-------------------------|
D -----3-3-3--5-5-5--5-5-5----------------------------------|
A -----3-3-3--3-3-3--5-5-5----------------------------------|
E -----1-1-1---------3-3-3----------------------------------|

E ----------------------------------------------------------|
B -------------------------------7--------------------------|
G -----2-2-2--5-5-5--4-4-4-?--5h7---------------------------|
D -----3-3-3--5-5-5--5-5-5----------------------------------|
A -----3-3-3--3-3-3--5-5-5----------------------------------|
E -----1-1-1---------3-3-3----------------------------------|

E ----------------------------------------------------------|
B ----------------------------------------------------------|
G -----2-2-2--5-5-5--4-4-4----------------------------------|
D -----3-3-3--5-5-5--5-5-5----------------------------------|
A -----3-3-3--3-3-3--5-5-5----------------------------------|
E -----1-1-1---------3-3-3----------------------------------|

E ----------------------------------------------------------|
B ----------------------------------------------------------|
G -----2-2-2--5-5-5--4-4-4---3-5v---------------------------|   x2
D -----3-3-3--5-5-5--5-5-5----------------------------------|
A -----3-3-3--3-3-3--5-5-5----------------------------------|
E -----1-1-1---------3-3-3----------------------------------|

	Chorus
E ----------------------------------------------------------|
B ----------------------------------------------------------|
G ---------------------------------------------5b^----------|
D ----------------------------------------------------------|
A -------------1-3-3-------1-3-3--1-3-3---------------------|
E --1-3-3--------------------------------1-3-3--------------|

E ----------------------------------------------------------|
B ----------------------------------------------------------|
G ----------------------------------------------------------|
D ----------------------------------------------------------|
A -------------1-3-3-------1-3-3--1-3-3---------------------|
E --1-3-3--------------------------------1-3-3--------------|

E ----------------------------------------------------------|
B ----------------------------------------------------------|
G -----------------------------------------------5b^--------|
D ----------------------------------------------------------|
A -------------1-3-3-------1-3-3--1-3-3---------------------|
E --1-3-3--------------------------------1-3-3--------------|

E ----------------------------------------------------------|
B ----------------------------------------------------------|
G -----4-4-4-x----2-2-2--5-5-5--4-4-4-----------------------|
D -----5-5-5-x----3-3-3--5-5-5--5-5-5-----------------------|
A -----5-5-5-x----3-3-3--3-3-3--5-5-5-----------------------|
E -----3-3-3-x----1-1-1---------3-3-3-----------------------|

E ----------------------------------------------------------|
B ----------------------------------------------------------|
G -----2-2-2--5-5-5--4-4-4----------------------------------|
D -----3-3-3--5-5-5--5-5-5----------------------------------|
A -----3-3-3--3-3-3--5-5-5----------------------------------|
E -----1-1-1---------3-3-3----------------------------------|

	SOLO
E ------------------------------------------------------------------|
B ------------------------------------------------------------------|
G --------------------------------------------------12--------------|
D ---------------------------------12h10----15-12-15----------------|
A --5b^v----5-5-3-5--5-7-10-----------------------------------------|
E ------------------------------------------------------------------|

E ------------------------------------------------------------------|
B ---------13-13/11-11----------------------------------------------|
G -12-15----------------12-10----10/12-12/14-10-7~-----7v~----------|
D ------------------------------------------------------------------|
A ------------------------------------------------------------------|
E ------------------------------------------------------------------|

E ------------------------------------------------------------------|
B --------------11--13-13-15--13---13-15/18--20--20-20--20/---------|
G -10h12-------------------------12---------------------------------|
D ----------------------------------------------------------5-5-5---|
A ------------------------------------------------------------------|
E ------------------------------------------------------------------|

   Just play the main verse part through the solo and that's it.
   It sounds pretty good to me. Send comments or corrections
   to [email protected]


Текст, аккорды и табулатура для песни "10 Am Automatic", исполняет "Black Keys".
Используемые в песне аккорды можно найти в разделе Как брать аккорды. Аккорды для шестиструнной гитары. Другие песни можно найти на нашем сайте, воспользовавшись алфавитным указателем вверху страницы.


 
Ошибка в тексте? Выделите ошибку и нажмите Ctrl+Enter