Tabs: *****************
SISTER LUCK    ****************************************************
***************** by the Black Crowes
                  from their first release, Shake Your Money Maker
               ****************************************************

Tabbed by Gonzoman [[email protected]]
Visit [www.blues-guitar.homepage.com] for all your blues tab needs!

This is not meant to be absolutely complete, nor do I make any attempt 
to display the rhythm used.  This is merely a starting point.  Most of
the song is here.  Some of it is not.  I have included times on the CD
to better show which parts I'm referring to.  Enjoy!

Standard Tuning

INTRO
(Guitar 1, slightly overdriven electric)
             B                 B
e|-----------7-----------------7----------------------------
B|--7h9--9---7--------7h9--9---7------7h9--9-----9-9p7------
G|--8h9--9---8--------8h9--9---8------8h9----9---------8----
D|--9----9---9--------9----9---9------9--------9---------9--
A|--9--------9--------9--------9------9---------------------
E|-----------7-----------------7----------------------------
    B    A   A A
 |--7--75---5-5------
 |--7--75---5-5------  Repeat
 |--8--86---6-6------       
 |--9--97---7-7------
 |--9--97---7-7------
 |--7--75---5-5------

INTRO LEAD [00:17 on the CD]

e|---------------------------------------------------------------
B|---------------------------------------12----------------------
G|----11b11b11--9~~~--------9----9---11b-----11b11b11--9~~~~-----
D|---------------------9h11---11---------------------------------
A|---------------------------------------------------------------
E|---------------------------------------------------------------
   [00:28 on the CD]
 |---------------------------------------------------------------
 |--12-9-----------------------12--------------------------------
 |-------11b11--9------9--11b--------b11-9-----------------------
 |-----------------11----------------------11--7~~~~~------------
 |---------------------------------------------------------------
 |---------------------------------------------------------------

(Repeat Variations of above as necessary)

During verse, follow this chord progression...
      B*   B    A
e|----7----7----5----
B|----9----7----5----
G|----9----8----6----
D|----9----9----7----
A|----9----9----7----
E|----7----7----5----

[00:49 on the CD]

B*      B                A
Worried sick my eyes are hurting
To rest my head I'd take a life
Outside the girls are dancing
'Cause when you're down it just don't seem right

Feeling second fiddle to a dead man
Up to my neck with your disregard
Like a beat dog that's walking on the broadway
No one wants to hear you when you're down

For chorus, use barre chords
 
 C#              B
  Sister luck is screaming out 
  A
  Somebody else's name
 C#              B
  Sister luck is screaming out
  A
  Somebody else's name

REPEAT INTRO LEAD PART

A flip of a coin might make a head turn
No surprise, who sleeps
Held my hand over a candle
Flame burnin' but I never weep

  Sister luck is screaming out 
  Somebody else's name
  Sister luck is screaming out
  Somebody else's name

  What a shame

BRIDGE [3:21 on the CD]
SOLO WORK (untabbed) OVER BRIDGE

     A    B     
e|---5--5/7--7-7            
B|---5--5/7--7-7             
G|---6--6/8--8-8    Repeat     
D|---7--7/9--9-9   /  (x3)      
A|---7--7/9--9-9  /              
E|---5--5/7--7-7 /                 Repeat entire phrase as 
     A  A    E                    / necessary throughout solo
 |---5--5----0--                 /
 |---5--5----0--                /
 |---6--6----1--               /
 |---7--7----2--              /
 |---7--7----2--             /
 |---5--5----0--            / 

CHORUS

REPEAT BRIDGE [4:17 on CD]

LEAD WORK OVER 2ND BRIDGE
e|-------------------------------------------------------------------------
B|-------------------------------------------------------------------------
G|--9h11-11---9h11-11---9h11-11---11-11-11-119-9-98-8-8-86-6-6-64-4/---
D|-------------------------------------------------------------------------
A|-------------------------------------------------------------------------
E|-------------------------------------------------------------------------

LAST RIFF [4:53 on the CD] 
(I didn't tab all the repeated notes and sliding, you can figure that 
out)
                                         B 
e|---------------------------------------7-----
B|---------------------------------------7-----  (end on Barre B Chord)
G|--11---9---8---6---4---1---------------8-----
D|---------------------------4---6---8--(9)----
A|---------------------------------------9-----
E|---------------------------------------7-----

Thanks, and enjoy!    
  | | /			
- matt - 
 / | | 

Visit [www.blues-guitar.homepage.com] for all your blues tab needs!
(Including other Black Crowes Tabs!)


Текст, аккорды и табулатура для песни "Sister Luck", исполняет "Black Crowes".
Используемые в песне аккорды можно найти в разделе Как брать аккорды. Аккорды для шестиструнной гитары. Другие песни можно найти на нашем сайте, воспользовавшись алфавитным указателем вверху страницы.


 
Ошибка в тексте? Выделите ошибку и нажмите Ctrl+Enter