Im not sure how exact this is but it sounds really good
(its not as complicated as it looks)
Tuning - Open E
         Raise the A up 1 whole step (to B)
         Raise the D up 1 whole step (to E)
         Raise the G up 1/2 step (to G#)
         (listen to song for exact timing)
Song layout
Intro A,B,& C
Pre chorus
Chorus x2
Pt D
Verse x4
Pre chorus
Chorus x2
Pt D
Verse x4
Chorus (only once)
verse (only once)
Part D
verse (once)
Inro B & C
Chorus (repeat untill song ends some parts change a little you'll figure it out)
                 **** Intro A ****
e |-----0------0------0----------0-| R
B |-4h5---42-0------0-----------0-| E
G#|--------------0h1----1-1p0----0-| P
E |---------------------------0--0-| E
B |--------------------------------| A
E |--------------------------------| T
                **** Inro A Continued ****
                       ?? ??
e |-000-0-0-0-0-0-0----12-15-000-0-0-0-0-0-0-|
B |-000-0-0-0-0-0-0----12-15-000-0-0-0-0-0-0-|
E |-000-0-0-2-x-2-0----12-15-000-0-0-2-x-2-0-|
B |-000-0-0-0-0-0-0----12-15-000-0-0-0-0-0-0-|
E |-000-0-0-0-0-0-0----12-15-000-0-0-0-0-0-0-|
    v^v v ^ v ^ v ^    v  v 
                  **** Intro B **** 
e |----------------------------------0-0-0-0-0-0-|
B |---------------0h2----------0-----0-0-0-0-0-0-|
G#|------0--0h3-------0--0h3---------0-0-1-x-1-0-|*this part can be tricky 
E |--2/4--------0------------0---2-0-0-0-2-x-2-0-|
B |----------------------------------0-0-0-0-0-0-|
E |----------------------------------0-0-0-0-0-0-|
                                     v ^ v ^ v ^  
     **** Intro C ****
e |-0-0-0-0-0-0-0-0-0-0-00-0-0-0-0-|
B |--5-4------------0-0-00-0-0-0-0-|
E |--------------0--0-0-00-2-x-2-0-| you can play around w/
B |-------------------0-00-0-0-0-0-|the strumin you dont have
E |-------------------0-00-0-0-0-0-| to do it exactly like that
                    v v v^ v ^ v ^   

   She never mentions the word addiction...
e |-----------------------------000---0-0-00-0-0-0-0-------|
B |-----------------------------000---0-0-00-0-0-0-0-------|
G#|-----------------------------000---0-0-00-1-x-1-0-------|Repeat 4x through out the verse
E |-----------------------------000---0-0-00-2-x-2-0-------|
B |-----------------------------000---0-0-00-0-0-0-0-------|
E |-----------------------------000---0-0-00-0-0-0-0-------|

  |   Pre chorus  |      Chorus                       |
e |-00000-0-00000-|-7-77-77-7--555-55555-0-00-0-0-0-0-|
B |-55555-5-55555-|-7-77-77-7--555-55555-0-00-0-0-0-0-| **As with the rest of the tab, listen to the song to get the exact cord changes & struming techniques
E |-00000-0-00000-|-7-7--77-7--555-55555-0-00-2-x-2-0-|
B |---------------|-7-7--77-7--555-55555-0-00-0-0-0-0-|
E |---------------|-7-7--77-7--555-55555-0-00-0-0-0-0-|
    v^v^v v v^v^v   v v^ v^ v  ^v^ v^v^v v v^ v ^ v ^

     Part D
e |--12--15--|            
B |--12--15--|
E |--12--15--|
B |--12--15--|
E |--12--15--|

  A   E  Esus
|-5-|-0-|-0-| this is easy here are the chords, you can
|-5-|-0-|-0-| figure it out

Текст, аккорды и табулатура для песни "She Talks To Angels", исполняет "Black Crowes".
Используемые в песне аккорды можно найти в разделе Как брать аккорды. Аккорды для шестиструнной гитары. Другие песни можно найти на нашем сайте, воспользовавшись алфавитным указателем вверху страницы.

Ошибка в тексте? Выделите ошибку и нажмите Ctrl+Enter