Biohazard, Loss.
Tabbed by WSR, [email protected]
  
Biohazard (Urban Discipline)

LOSS - tabbed by WSR 


For better 'hazard sound tune down one whole step: D, G, C, F, A, D
Only intro and main riff tabbed

Intro
E-|---------------------------------|-----------------------------------|
B-|---------------------------------|-----------------------------------|
G-|---------0-----2-----2-------0---|---------0-----2-----2-------2-0---|
D-|-----4-----4-----4-----4---4-----|-----4-----4-----4-----4---4-------|
A-|---2---2-----0-----0-----5-------|---2---2-----0-----0-----5---------|
E-|-0-------------------------------|-0---------------------------------|


E-|---------------------------------|-----------------------------------|
B-|---------------------------------|-----------------------------------|
G-|---------0-----2-----2-------0---|-------0------------------0--------|
D-|-----4-----4-----4-----4---4-----|---0-----4-----4------0-----0------|
A-|---2---2-----0-----0-----5-----5-|-----2-----2--------1---1-----1----|
E-|-0-------------------------------|-3-----------3---2--------------3--|


E-|---------------------0-----------|-------------------------0---------|
B-|---------------0-------0---0-----|---------0---------0-------0-------|
G-|---------0-------0-------0---0---|-----0-----0---------0-------0-----|
D-|-----4-----4-------4-----------0-|---2---2-----2-2/4-----4-----------|
A-|---2---2-----2-------------------|-3-------------3/5-------------0---|
E-|-0-------------------------------|-----------------------------------|


E-|-------------------0-----------|-------------------------0-----------|
B-|-------------0-------0---0-----|---------0---------0-------0-0---0---|
G-|-------0-------0-------0---0---|-----0-----0---------0-------0---0---|
D-|-----4---4-------4-----------0-|---2---2-----2-2/4-----4-----4---2---|
A-|---2-------2-------------------|-3-------------3/5-----------5---3---|
E-|-0-----------------------------|-------------------------------------|


E-|-0---0----------------------|---------------------0----------------0-||
B-|-0-----0------0-------------|---------------0-------0---0----------0-||
G-|-0-------0------0-----------|---------0-------0-------0---0--------0-||
D-|-2----------------0---------|-----4-----4-------4-----------4------2-||
A-|-3---------3----------2-----|---2---2-----2---------------------2--2-||
E-|--------------------3---2-3-|-0------------------------------------0-||


Main riff (played during lyrics)
E-|--------------------------------------------------------------||
B-|--------------------------------------------------------------||
G-|--------------------------------------------------------------||
D-|--------------------------------------------------------------||
A-|-2----------------2---2-----2----8-----------------3----3-----||
E-|-0----------------0---0-----0----6-----------------1----1-----||
    Even for a second....       ...ask...     ...was gonna be his
    last...etc.

Corrections, additions, comments etc. [email protected] (http://home.conceptsfa.nl/~wrijerse/)
 
:: Ultimate Guitar Archive :: 
http://www.ultimate-guitar.com 

 


Текст, аккорды и табулатура для песни "Loss", исполняет "Biohazard".
Используемые в песне аккорды можно найти в разделе Как брать аккорды. Аккорды для шестиструнной гитары. Другие песни можно найти на нашем сайте, воспользовавшись алфавитным указателем вверху страницы.


Слушать онлайн Loss


BiohazardLoss на Яндекс.Музыке


 
Ошибка в тексте? Выделите ошибку и нажмите Ctrl+Enter