tuning  :1 WHOLE STEP DOWN
ARTIST	:BIOHAZARD
SONG	:AUTHORITY
ALBMN	:MATA LEAO

with wahwah
e|-----------------------------------------------------------------------------------|
b|-----------------------------------------------------------------------------------|
g|----3/-4--4----4/-7--7---7---5--5---5/-8-----3/-4--4---4/-7---7--7---5--5---8----|
d|----1/-2--2----2/-5--5---5---3--3---3/-6-----1/-2--2---2/-5---5--5---3--3---6----|
a|-----------------------------------------------------------------------------------|
E|-----------------------------------------------------------------------------------|

riff 1 
chorus=fuck the rules
e|-------------------------------------------------------------------------------|
b|-------------------------------------------------------------------------------|
g|-------------------------------------------------------------------------------|
d|-------------------------------------------------------------------------------|
a|---2----2-2-----5-5---5---3-3--3--6--6----2---2-2--2--5-5--5---3--3-----6------|
E|---0----0-0--0--3-3---3---1-1--1--4--4----0---0-0--0--3-3--3---1--1-----4------|

riff 2
Monday morning				end up snoring
Wednesdays rules			tensions roaring
Friday nights				drinking must be fun
go for a drive				drink and drive
e|------------------------------------------------------------------------|
b|------------------------------------------------------------------------|
g|------------------------------------------------------------------------|
d|------2-------------------------------3-3-3-3--2------------------------|
a|------2-------------------------------1-1-1-1--0------------------------|
E|---- -0-----------------------------------------------------------------|

riff 3
Tuesdays mail				wants me in jail
Thursday same shit			ever go away
on saterday				have it your way
on Sunday				BULLSHIT
e|-----------------------------------------------------------------|
b|-----------------------------------------------------------------|
g|-----------------------------------------------------------------|
d|-------2---------------------------------------------------------|
a|-------2------------------------------5--5--5----3--6------------|
E|------ 0------------------------------3--3--3--- 1--4------------|


chorus = riff 1

riff 4
Call me paranoid
e|---------------------------------------------------------------------|
b|---------------------------------------------------------------------|
g|---------------------------------------------------------------------|
d|---------------------------------------------------------------------|
a|---2---4---4-4-5-5-5-5---7--7--7------2---4--4-4--5-5-5-5----3-3-3---|
E|---0---2---2-2-3-3-3-3---5--5--5------0---2--2-2--3-3-3-3----1-1-1---|

bridge				
e|--------------------------------------------|
b|--------------------------------------------|
g|--------------------------------------------|
d|-------7-----7--7---5----8--5---5---3----x3-|
a|-------5-----5--5---3----6---3--3---5-------|
E|-------5-----5--5---3----6---3--3---5--------|

e|----------------------------------------------------------|
b|----------------------------------------------------------|
g|----------------------------------------------------------|
d|-----7-----7--7---5----8--5--5---3----5-------------------|
a|-----5-----5--5---3- --6--3--3---5----3---5--5--5---3--6--|
E|-----5-----5--5---3----6--3--3---5----3---3--3--3---1--4--|

riff 4
chorus




Текст, аккорды и табулатура для песни "Authority", исполняет "Biohazard".
Используемые в песне аккорды можно найти в разделе Как брать аккорды. Аккорды для шестиструнной гитары. Другие песни можно найти на нашем сайте, воспользовавшись алфавитным указателем вверху страницы.


Слушать онлайн Authority


BiohazardAuthority на Яндекс.Музыке


 
Ошибка в тексте? Выделите ошибку и нажмите Ctrl+Enter