Deep
Binoculars

Transcribed by: VJ Mercader
The Intro Tabs is very very very Correct, try it


Tuning: CAPO II

TAB 1(Intro,Verse 1&2, and Chorus)
e^2|-------2-----|------2-----|-----0-----|-----2------|
B^2|---------3---|--------3---|-------3---|-------3----|
G^2|-----------0-|----------0-|---------0-|---0-----0--|
D^2|-------------|------------|---0-------|-0----------|
A^2|-----0-------|----0-------|-2---------|------------|
E^2|---3---------|--0---------|-----------|------------|
      Pattern1	   Pattern2      Pattern3    Pattern4

Verse 1:
So this is what you mean
and this is how you feel
so this is how you see
and this is how you breathe

(Refrain) 
*TAB 2 Distortion
|-------2----------|-------2--------------|
|-----------3------|-----------3----------|
|----0--------0----|-----0-------0--------|
|------------------|----------------------|
|------------------|----------------------|
|------------------|----------------------|
 Em        C
Sometimes, I know
 Em        C (Let ring)
Sometimes, I go down deep...

Chorus:
{{Lead does TAB 1 with Distortion}}
G    Em   C    D
     Ooh, Ooh, ohooh uooh...

Verse 2: (TAB 1)
Repeat lyrics of Verse 1 

(Refrain)

(Chorus)

Verse 3:(TAB 1)
Beneath the deep blue sea
touching every Breathe
All the slight of hand
For everything you've left

(refrain)

(Chorus)

I Go down deep...

TAB 3: (Guitar Solo(Lead): with Distortion)
|-----2-------------------------2----------------------
|-------3-------------------------3--------------------
|---0-----0---2-4/5-5-4-4-2---0-----0------------------
|---------------------------------------0-2/4-4-2-2-0--
|------------------------------------------------------
|------------------------------------------------------
(On the Solo, Rythm Guitar palys Refrain Chords)

(Refrain 2: same tabs, same chords)
Sometimes, I give myself for you
Sometimes, I Know Down Deep...

(Guitar solo: Guitar 1)
*Play TAB 1 once, then play TAB 1 the second time
with Guitar 2 on distortion Playing TAB 1

(Chorus)


Текст, аккорды и табулатура для песни "Deep", исполняет "Binocular".
Используемые в песне аккорды можно найти в разделе Как брать аккорды. Аккорды для шестиструнной гитары. Другие песни можно найти на нашем сайте, воспользовавшись алфавитным указателем вверху страницы.


 
Ошибка в тексте? Выделите ошибку и нажмите Ctrl+Enter