another tab done by [email protected]

b=bend 

e----------------------------------------------------------
b-------------------------2-------2-------2-------2--------
g-----2---------2-------5---5---5---5---5---5---5---5------
d---0---0-----0---0---4-------4-------2-------2------------x1
a-2-------0-2-------0--------------------------------------
E----------------------------------------------------------

e------------------------------------------0-0-------------
b--------------------------------------5-5-5-5-------------
g-----2-------2-------2-------2----2-2-2-2-2-2-------------
d---0---0---0---0---0---0---0---0--4-4-4-4-2-2-------------x1
a-2-------0-------2-------0--------------------------------
E----------------------------------------------------------

e-0-0-0--0-0--0-0-0----------------7-----------------------
b-5-5-5--5-5--5-5-5----5-----------7-----------------------
g-2-2-2--2-2--2-2-2------6---------------------------------
d-4-4-4--4-2--2-2-2--------7-6-7-4-------------------------x2
a--------------------4-------0-----------------------------
E----------------------------------------------------------

e---------------7----------------7-------------------------
b---5-----------7----5-----------7-------------------------
g-----6----------------6-----------------------------------
d-------7-6-7-4----------7-6-7-4---------------------------x1
a-4-------0--------4-------0-------------------------------
E----------------------------------------------------------

e----------------------------------------------------------
b----------------------------------------------------------
g----------------------------------------------------------
d----------------------------------------------------------x5
a-4-------0------------------------------------------------
E----------------------------------------------------------

e----------------7-----------------------------------------
b---5------------7-----------------------------------------
g-----6----------------------------------------------------
d-------7-6-7-4--------------------------------------------x2
a-4-------0--------4------0--------------------------------
E----------------------------------------------------------

e-0-0-0--0-0--0-0-0----------------------------------------
b-5-5-5--5-5--5-5-5----------------------------------------
g-2-2-2--2-2--2-2-2----------------------------------------
d-4-4-4--4-2--2-2-2--4-4-4-4-4-2-2-2-2-2-------------------x4
a--------------------2-2-2-2-2-2-2-2-2-2-------------------
E----------------------------------------------------------

e---------------7----------------7-------------------------
b---5-----------7----5-----------7-------------------------
g-----6----------------6-----------------------------------
d-------7-6-7-4----------7-6-7-4---------------------------x1
a-4-------0--------4-------0-------------------------------
E----------------------------------------------------------

e----------------------------------------------------------
b----------------------------------------------------------
g----------------------------------------------------------
d----------------------------------------------------------x5
a-4-------0------------------------------------------------
E----------------------------------------------------------

e----------------7-----------------------------------------
b---5------------7-----------------------------------------
g-----6----------------------------------------------------
d-------7-6-7-4--------------------------------------------x2
a-4-------0--------4------0--------------------------------
E----------------------------------------------------------

e-0-0-0--0-0--0-0-0----------------------------------------
b-5-5-5--5-5--5-5-5----------------------------------------
g-2-2-2--2-2--2-2-2----------------------------------------
d-4-4-4--4-2--2-2-2--4-4-4-4-4-2-2-2-2-2-------------------x4
a--------------------2-2-2-2-2-2-2-2-2-2-------------------
E----------------------------------------------------------

(goes into the harder part of the song which i dont know)

e-------------------0-------0-------0-------0--------------
b-----5-------5-----5-------5-------5-------5--------------
g-----2-------2---2---2---2---2---2---2---2---2------------
d---0---0---0---4-------4-------2-------2------------------x4
a-2-------0------------------------------------------------
E----------------------------------------------------------

e-------0--0-0-0--0-0--0-0-0-------------------------------
b-----5-5--5-5-5--5-5--5-5-5-------------------------------
g-2-2-2-2--2-2-2--2-2--2-2-2-------------------------------
d-4-4-4-4--4-4-4--4-2--2-2-2-------------------------------x1
a----------------------------------------------------------
E----------------------------------------------------------

e-0-0-0--0-0--0-0-0----------------------------------------
b-5-5-5--5-5--5-5-5----------------------------------------
g-2-2-2--2-2--2-2-2----------------------------------------
d-4-4-4--4-2--2-2-2-4-4-4-4-4-2-2-2-2-2--------------------x4
a-------------------2-2-2-2-2-2-2-2-2-2--------------------
E----------------------------------------------------------

(on the last time around you slow down the speed when you bend the
strings)
e-b0-b0-b0--b0-b0--b0-b0-b0-------------------------------- 
b-b5-b5-b5--b5-b5--b5-b5-b5--------------------------------
g-b2-b2-b2--b2-b2--b2-b2-b2--------------------------------
d-b4-b4-b4--b4-b2--b2-b2-b2-4-4-4-4-4-2-2-2-2-2------------x4
a---------------------------2-2-2-2-2-2-2-2-2-2------------
E----------------------------------------------------------

i hope anyone who gets this tab enjoys it much to their content


Текст, аккорды и табулатура для песни "Try Honesty (ver 8)", исполняет "Billy Talent".
Используемые в песне аккорды можно найти в разделе Как брать аккорды. Аккорды для шестиструнной гитары. Другие песни можно найти на нашем сайте, воспользовавшись алфавитным указателем вверху страницы.


 
Ошибка в тексте? Выделите ошибку и нажмите Ctrl+Enter