-------------------------------------------------------------------------------
			     Try Honesty - Billy Talent
-------------------------------------------------------------------------------

Tabbed by: Mark Stoute
Email: [email protected]

Tuning: Dropped D (DADGBE)


riff plays on and off during verses
e|-----------------7------------|
B|-----------------7------------|
G|---9p7------------------------|
D|--------7-6-74---------------|
A|------------------------------|
D|------------------------------|


Intro
it might be easier to play the open e string instead of 5 on b or vice versa
e|--------------------------------------------0---------0----------0-------0---|
B|----------5--------5--------5-------5----------------------------------------|
G|--------2---2----2---2----2---2---2---2---1---1----1----1----1-2-----2-4-----|
D|------4--------4--------2-------2-------2--------2---------2-------2--------2|
A|-----------------------------------------------------------------------------|
D|-----------------------------------------------------------------------------|


e|---------------------------------------------0-----0----00|
B|----------5--------5--------5-------5--------0-----0----33|
G|--------2---2----2---2----2---2---2---2------1-----2----22|
D|------4--------4--------2-------2-------2----2-----2----44|
A|----------------------------------------------------------|
D|----------------------------------------------------------|

Chorus
e|-----0------------------0----------------------------------------------------|
B|-----5------------------5----------------------------------------------------|
G|-----2------------------2----------------------------------------------------|
D|-----4------------------2-----------------------------4-------------2--------|
A|------------------------------------------------------4-------------2--------|
D|------------------------------------------------------4-------------2--------|
        Forgive me father  Why should you bother        Try honesty    Try honesty

bending part... after the chorus
e|-------------5b-----------------7b----------|
B|-------------5b-----------------7b----------|
G|-------------5b-----------------7b----------|
D|--------------------------------------------|
A|--------------------------------------------|
D|--------------------------------------------|

Ending.. listen carefully and youll hear it 
e|--------------------------------------------|
B|--------------------------------------------|
G|--------------------------------------------|
D|-------5~ repeated--------------------------|
A|--------------------------------------------|
D|--------------------------------------------|


| /  slide up
|   slide down
| h  hammer-on
| p  pull-off
| ~  vibrato
| +  harmonic
| x  Mute note


The bass part of this song sounds alot like
D  4    0
A  4    0
D  4    0
some people had this confused for the guitar part... if you listen carefully
there are definatly some bass riffs later on that start with those sounds.
Also, just watch the music video. i duno what you think but this is a solid
band. creative and original. goodstuff. Have fun.

This is a work in progress... i think the 'try honesty' part might have the
guitar playing notes( 7 6 4 6 4 2 on the middle d string) instead of chords with
the bass. and im not fully sure about the end of the intro.
email me if you make any changes. [email protected]

[email protected]==============


Текст, аккорды и табулатура для песни "Try Honesty", исполняет "Billy Talent".
Используемые в песне аккорды можно найти в разделе Как брать аккорды. Аккорды для шестиструнной гитары. Другие песни можно найти на нашем сайте, воспользовавшись алфавитным указателем вверху страницы.


 
Ошибка в тексте? Выделите ошибку и нажмите Ctrl+Enter