this is my first tab. i did my best to try to type the lyrics and tab in rhythm
with each other. also, im not sure about the notation since i've never done this before

^=bend string
~=vibrato
/=slide up to indicated fret
=slide down to indicated fret

Dropped D
w/ distortion
Intro
E|----0----------0---------0---------0----------0--------0--------0-------0-
B|----2----------2---------2---------2----------0--------0--------0-------0-
G|------2----------2-----2---2-----2---2------2---2-----2--------4-------6--
D|--0----------0----------------------------4---------4------4/6-----6/7---7
A|2----------2---------0---------0------------------------------------------
D|--------------------------------------------------------------------------

E|----0----------0---------0---------0------0-0-0-0-0-0-0-0-0-0-0-0-0-0
G|----2----------2---------2---------2------0-0-0-0-0-0-0-0-0-0-0-0-0-0
D|------2----------2-----2---2-----2---2----2-2-2-2-2-2-2-2/4-4-4-4/5-5
A|--0----------0----------------------------4-4-4-4-4-4-4-4/6-6-6-6/7-7
D|2----------2---------0---------0-------------------------------------

E|0-0---0-0-0-0-00-0-0---0-0-0-0-00--------------5
B|2-2---2-2-2-2-22-2-2---2-2-2-2-22-----5--------5
G|2-2---2-2-2-2-22-2-2---2-2-2-2-22------6-------5
D|0-0---0-0-0-0-00-2-2---2-2-2-2-22-4-----7-6-74-
A|2-2---2-2-2-2-22-0-0---0-0-0-0-00-4-------0-----
D|----------------------------------4-------0-----

E|0-0---0-0-0-0-00-0-0---0-0-0-0-00--------------5
B|2-2---2-2-2-2-22-2-2---2-2-2-2-22-----5--------5
G|2-2---2-2-2-2-22-2-2---2-2-2-2-22------5-------5
D|0-0---0-0-0-0-00-2-2---2-2-2-2-22-4-----7-6-74-
A|2-2---2-2-2-2-22-0-0---0-0-0-0-00-4-------0-----
D|----------------------------------4-------0-----

E|0-0---0-0-0-0-00-0-0---0-0-0-0-00--------------5---------------5
B|2-2---2-2-2-2-22-2-2---2-2-2-2-22-----5--------5------5--------5
G|2-2---2-2-2-2-22-2-2---2-2-2-2-22------6-------5-------6-------5
D|0-0---0-0-0-0-00-2-2---2-2-2-2-22-4-----7-6-74---4-----7-6-74-
A|2-2---2-2-2-2-22-0-0---0-0-0-0-00-4-------0-------4-------0-----
D|----------------------------------4-------0-------4-------0-----

Verse
E|-------------------------------------------------------------
B|-------------------------------------------------------------
G|-------------------------------------------------------------
D|4-----------------0--------------------4--------------------0
A|4-----------------0--------------------4--------------------0
D|4-----------------0--------------------4--------------------0
   Well I tripped   I fell down          Na- - - - - - - - - -ked

E|----------------------------------------------------------------
B|----------------------------------------------------------------
G|----------------------------------------------------------------
D|4-----------------0--------------------4--------------------0
A|4-----------------0--------------------4--------------------0
D|4-----------------0--------------------4--------------------0
   Well I scratched   My knees           The- - - - - - - -y  Bled

E|-----------------------------------------------------------------5
B|------------------------------------------------------5----------5
G|--------------------------------------------------------6--------5
D|4-----------------0--------------------4------------------7-6-74-
A|4-----------------0--------------------4--------------------0-----
D|4-----------------0--------------------4--------------------0-----
    Sew up            My eyes            Ne- - - - - - - - -d No more

E|-----------------------------------------------------------------5
B|------------------------------------------------------5----------5
G|--------------------------------------------------------6--------5
D|4-----------------0--------------------4------------------7-6-74-
A|4-----------------0--------------------4--------------------0-----
D|4-----------------0--------------------4--------------------0-----
   In our game        There is           No- - - - - - - - -  Score

Chorus
E|0--0----0-0-0-0-00--0---0------0--0-0-0-00-
B|2--2----2-2-2-2-22--2---2------2--2-2-2-22-
G|2--2----2-2-2-2-22--2---2------2--2-2-2-22-
D|0--0----0-0-0-0-00--2---2------2--2-2-2-22-
A|2--2----2-2-2-2-22--0---0------0--0-0-0-00-
D|-----------------------------------
  Forgive me father   Why should ya bother

E|--------------------------------
B|--------------------------------
G|--------------------------------
D|7-7-7-6-6-6-4-0-6-6-6-4-4-4-2-0-
A|4-4-4-4-4-4-4-0-2-2-2-2-2-2-2-0-
D|4-4-4-4-4-4-4-0-2-2-2-2-2-2-2-0-
  TRY   HONESTY!  TRY   HONESTY!

E|0---0--0----0--0-0-00---0-0-----0---0--0-0-00-
B|2---2--2----2--2-2-22---2-2-----2---2--2-2-22-
G|2---2--2----2--2-2-22---2-2-----2---2--2-2-22-
D|0---0--0----0--0-0-00---2-2-----2---2--2-2-22-
A|2---2--2----2--2-2-22---0-0-----0---0--0-0-00-
D|---------------------------------------
  Hop in your dump truck  Reverse for good luck

E|--------------------------------
B|--------------------------------
G|--------------------------------
D|7-7-7-6-6-6-4-0-6-6-6-4-4-4-2-0-
A|4-4-4-4-4-4-4-0-2-2-2-2-2-2-2-0-
D|4-4-4-4-4-4-4-0-2-2-2-2-2-2-2-0-
  RIDE  OVER  ME! RIDE  OVER  ME!

E|0---0---0---0--0--0-00---0-----0-----0--0--0--0-00-
B|2---2---2---2--2--2-22---2-----2-----2--2--2--2-22-
G|2---2---2---2--2--2-22---2-----2-----2--2--2--2-22-
D|0---0---0---0--0--0-00---2-----2-----2--2--2--2-22-
A|2---2---2---2--2--2-22---0-----0-----0--0--0--0-00-
D|---------------------------------------
  Take on the whole world  Fight with the young girls

E|--------------------------------
B|--------------------------------
G|--------------------------------
D|7-7-7-6-6-6-4-0-6-6-6-4-4-4-2-0-
A|4-4-4-4-4-4-4-0-2-2-2-2-2-2-2-0-
D|4-4-4-4-4-4-4-0-2-2-2-2-2-2-2-0-
  DIE   TRAGEDY!  DIE   TRAGEDY!

E|0---0---0--0--0--0-00--0--0----0---0--0--0-00-
B|2---2---2--2--2--2-22--2--2----2---2--2--2-22-
G|2---2---2--2--2--2-22--2--2----2---2--2--2-22-
D|0---0---0--0--0--0-00--2--2----2---2--2--2-22-
A|2---2---2--2--2--2-22--0--0----0---0--0--0-00-
D|--------------------------------------------
  Call me a  cheap skate Come on for petes sake

E|--------------------------------
B|--------------------------------
G|--------------------------------
D|7-7-7-6-6-6-4-0-6-6-6-4-4-4-2-0-
A|4-4-4-4-4-4-4-0-2-2-2-2-2-2-2-0-
D|4-4-4-4-4-4-4-0-2-2-2-2-2-2-2-0-
  CRY   AGONY!    CRY   AGONY!


E|-------------5---------------5-
B|----5--------5------5--------5-
G|-----6-------5-------6-------5-
D|4-----7-6-74---4-----7-6-74--
A|4-------0-------4-------0------
D|4-------0-------4-------0------

Verse 2
E|--------------------------------------------------------
B|--------------------------------------------------------
G|--------------------------------------------------------
D|4----------------0--------------------4----------------0
A|4----------------0--------------------4----------------0
D|4----------------0--------------------4----------------0
   I'm insane       It's your fault     So               Sly

E|---------------------------------------------------------
B|---------------------------------------------------------
G|---------------------------------------------------------
D|4-----------------0--------------------4----------------0
A|4-----------------0--------------------4----------------0
D|4-----------------0--------------------4----------------0
    Your well         Of lies            Ran              Dry

E|--------------------------------------------------------------5-
B|--------------------------------------------------5-----------5-
G|----------------------------------------------------6---------5-
D|4-----------------0--------------------4--------------7-6-74---
A|4-----------------0--------------------4----------------0-------
D|4-----------------0--------------------4----------------0-------
   Well I cut         The cord           Free             Fall

E|--------------------------------------------------------------5-
B|--------------------------------------------------5-----------5-
G|----------------------------------------------------6---------5-
D|4-----------------0--------------------4--------------7-6-74---
A|4-----------------0--------------------4----------------0-------
D|4-----------------0--------------------4----------------0-------
   From so high       We seem            So               small

Chorus
E|0--0----0-0-0-0-00--0---0------0--0-0-0-00-
B|2--2----2-2-2-2-22--2---2------2--2-2-2-22-
G|2--2----2-2-2-2-22--2---2------2--2-2-2-22-
D|0--0----0-0-0-0-00--2---2------2--2-2-2-22-
A|2--2----2-2-2-2-22--0---0------0--0-0-0-00-
D|-----------------------------------
  Forgive me father   Why should ya bother

E|--------------------------------
B|--------------------------------
G|--------------------------------
D|7-7-7-6-6-6-4-0-6-6-6-4-4-4-2-0-
A|4-4-4-4-4-4-4-0-2-2-2-2-2-2-2-0-
D|4-4-4-4-4-4-4-0-2-2-2-2-2-2-2-0-
  TRY   HONESTY!  TRY   HONESTY!

E|0---0--0----0--0-0-00---0-0-----0---0--0-0-00-
B|2---2--2----2--2-2-22---2-2-----2---2--2-2-22-
G|2---2--2----2--2-2-22---2-2-----2---2--2-2-22-
D|0---0--0----0--0-0-00---2-2-----2---2--2-2-22-
A|2---2--2----2--2-2-22---0-0-----0---0--0-0-00-
D|---------------------------------------
  Hop in your dump truck  Reverse for good luck

E|--------------------------------
B|--------------------------------
G|--------------------------------
D|7-7-7-6-6-6-4-0-6-6-6-4-4-4-2-0-
A|4-4-4-4-4-4-4-0-2-2-2-2-2-2-2-0-
D|4-4-4-4-4-4-4-0-2-2-2-2-2-2-2-0-
  RIDE  OVER  ME! RIDE  OVER  ME!

E|0---0---0---0--0--0-00---0-----0-----0--0--0--0-00-
B|2---2---2---2--2--2-22---2-----2-----2--2--2--2-22-
G|2---2---2---2--2--2-22---2-----2-----2--2--2--2-22-
D|0---0---0---0--0--0-00---2-----2-----2--2--2--2-22-
A|2---2---2---2--2--2-22---0-----0-----0--0--0--0-00-
D|---------------------------------------
  Take on the whole world  Fight with the young girls

E|--------------------------------
B|--------------------------------
G|--------------------------------
D|7-7-7-6-6-6-4-0-6-6-6-4-4-4-2-0-
A|4-4-4-4-4-4-4-0-2-2-2-2-2-2-2-0-
D|4-4-4-4-4-4-4-0-2-2-2-2-2-2-2-0-
  DIE   TRAGEDY!  DIE   TRAGEDY!

E|0---0---0--0--0--0-00--0--0----0---0--0--0-00-
B|2---2---2--2--2--2-22--2--2----2---2--2--2-22-
G|2---2---2--2--2--2-22--2--2----2---2--2--2-22-
D|0---0---0--0--0--0-00--2--2----2---2--2--2-22-
A|2---2---2--2--2--2-22--0--0----0---0--0--0-00-
D|--------------------------------------------
  Call me a  cheap skate Come on for petes sake

E|--------------------------------
B|--------------------------------
G|--------------------------------
D|7-7-7-6-6-6-4-0-6-6-6-4-4-4-2-0-
A|4-4-4-4-4-4-4-0-2-2-2-2-2-2-2-0-
D|4-4-4-4-4-4-4-0-2-2-2-2-2-2-2-0-
  CRY   AGONY!    CRY   AGONY!


Bridge                                  ~   ~
E|------------------9------------------0---0
B|--------5^--------7--------5^--------2---2
G|--------5^------------------5^--------2---2
D|4-4-4-4---0-0-0-0---3-3-3-3---0-0-0-0-0---2
A|4-4-4-4---0-0-0-0---3-3-3-3---0-0-0-0-2---0
D|4-4-4-4---0-0-0-0---3-3-3-3---0-0-0-0------
                                    UHHHAACHACHA
                                        ~   ~
E|------------------9------------------0---0
B|--------5^--------7--------5^--------2---2
G|--------5^------------------5^--------2---2
D|4-4-4-4---0-0-0-0---3-3-3-3---0-0-0-0-0---2
A|4-4-4-4---0-0-0-0---3-3-3-3---0-0-0-0-2---0
D|4-4-4-4---0-0-0-0---3-3-3-3---0-0-0-0------

                                                          ~   ~
E|--------------------------------------------------------0---0
B|--------------------------------------------------------2---2
G|--------------------------------------------------------2---2
D|4----4-2-4-7-4-2-0--------------0--3---3-2-3-5-3-2-0----0---2
A|4----4-2-4-7-4-2-0--------------0--3---3-2-3-5-3-2-0----2---0
D|4----4-2-4-7-4-2-0----------12--0--3---3-2-3-5-3-2-0---------
                              ~~
   I'm insane       It's your fault  CRY!!!!!!!!!!!!!!!!!!!!!!!

                                                          ~   ~
E|--------------------------------------------------------0---0
B|--------------------------------------------------------2---2
G|--------------------------------------------------------2---2
D|4----4-2-4-7-4-2-0--------------0--3---3-2-3-5-3-2-0----0---2
A|4----4-2-4-7-4-2-0--------------0--3---3-2-3-5-3-2-0----2---0
D|4----4-2-4-7-4-2-0----------12--0--3---3-2-3-5-3-2-0---------
                              ~~
   I'm insane       It's your fault  CRY!!!!!!!!!!!!!!!!!!!!!!!

E|------------------------------------------------------------------
B|------------------------------------------------------------------
G|------------------------------------------------------------------
D|4----4-2-4-7-4-2-0--------------0--3-3-3-3-0-0-0-0-2-2-2-2-3-3-3-3
A|4----4-2-4-7-4-2-0--------------0--3-3-3-3-3-3-3-3-3-3-3-3-3-3-3-3
D|4----4-2-4-7-4-2-0----------12--0--3-3-3-3-3-3-3-3-3-3-3-3-3-3-3-3
                              ~~
   I'm insane       It's your fault  CRY!!!!!!!!!!!!!!!!!!!!!!!!!!!!

E|-------------------------------
B|-------------------------------
G|-------------------------------
D|4-4-4-4-6-6-6-6-7-7-7-7-9-9-9-9
A|0-0-0-0-0-0-0-0-0-0-0-0-0-0-0-0
D|0-0-0-0-0-0-0-0-0-0-0-0-0-0-0-0

Intro
E|0---0----------0---------0---------0----------0--------0--------0-------0-
B|2---2----------2---------2---------2----------0--------0--------0-------0-
G|2-----2----------2-----2---2-----2---2------2---2-----2--------4-------6--
D|0-0----------0----------------------------4---------4------4/6-----6/7---7
A|2----------2---------0---------0------------------------------------------
D|--------------------------------------------------------------------------

E|----0----------0---------0---------0----------0--------0--------0-------0-
B|----2----------2---------2---------2----------0--------0--------0-------0-
G|------2----------2-----2---2-----2---2------2---2-----2--------4-------6--
D|--0----------0----------------------------4---------4------4/6-----6/7---7
A|2----------2---------0---------0------------------------------------------
D|--------------------------------------------------------------------------

E|----0----------0---------0---------0----------0--------0--------0-------0-
B|----2----------2---------2---------2----------0--------0--------0-------0-
G|------2----------2-----2---2-----2---2------2---2-----2--------4-------6--
D|--0----------0----------------------------4---------4------4/6-----6/7---7
A|2----------2---------0---------0------------------------------------------
D|--------------------------------------------------------------------------
  Forgive me father    Why should ya bother No------------------------w 

E|----0----------0---------0---------0------0-0-0-0-0-0-0-0-0-0-0-0-0-0
G|----2----------2---------2---------2------0-0-0-0-0-0-0-0-0-0-0-0-0-0
D|------2----------2-----2---2-----2---2----2-2-2-2-2-2-2-2-4-4-4-4-5-5
A|--0----------0----------------------------4-4-4-4-4-4-4-4-6-6-6-6-7-7
D|2----------2---------0---------0-------------------------------------
  Forgive me father    Why should ya bother No------------------------w

Chorus
E|0--0----0-0-0-0-00--0---0------0--0-0-0-00-
B|2--2----2-2-2-2-22--2---2------2--2-2-2-22-
G|2--2----2-2-2-2-22--2---2------2--2-2-2-22-
D|0--0----0-0-0-0-00--2---2------2--2-2-2-22-
A|2--2----2-2-2-2-22--0---0------0--0-0-0-00-
D|-----------------------------------
  Forgive me father   Why should ya bother

E|--------------------------------
B|--------------------------------
G|--------------------------------
D|7-7-7-6-6-6-4-0-6-6-6-4-4-4-2-0-
A|4-4-4-4-4-4-4-0-2-2-2-2-2-2-2-0-
D|4-4-4-4-4-4-4-0-2-2-2-2-2-2-2-0-
  TRY   HONESTY!  TRY   HONESTY!

E|0---0--0----0--0-0-00---0-0-----0---0--0-0-00-
B|2---2--2----2--2-2-22---2-2-----2---2--2-2-22-
G|2---2--2----2--2-2-22---2-2-----2---2--2-2-22-
D|0---0--0----0--0-0-00---2-2-----2---2--2-2-22-
A|2---2--2----2--2-2-22---0-0-----0---0--0-0-00-
D|---------------------------------------
  Hop in your dump truck  Reverse for good luck

E|--------------------------------
B|--------------------------------
G|--------------------------------
D|7-7-7-6-6-6-4-0-6-6-6-4-4-4-2-0-
A|4-4-4-4-4-4-4-0-2-2-2-2-2-2-2-0-
D|4-4-4-4-4-4-4-0-2-2-2-2-2-2-2-0-
  RIDE  OVER ME!  RIDE OVER ME!

E|0---0---0---0--0--0-00---0-----0-----0--0--0--0-00-
B|2---2---2---2--2--2-22---2-----2-----2--2--2--2-22-
G|2---2---2---2--2--2-22---2-----2-----2--2--2--2-22-
D|0---0---0---0--0--0-00---2-----2-----2--2--2--2-22-
A|2---2---2---2--2--2-22---0-----0-----0--0--0--0-00-
D|---------------------------------------
  Take on the whole world  Fight with the young girls

E|--------------------------------
B|--------------------------------
G|--------------------------------
D|7-7-7-6-6-6-4-0-6-6-6-4-4-4-2-0-
A|4-4-4-4-4-4-4-0-2-2-2-2-2-2-2-0-
D|4-4-4-4-4-4-4-0-2-2-2-2-2-2-2-0-
  DIE   TRAGEDY!  DIE   TRAGEDY!

E|0---0---0--0--0--0-00--0--0----0---0--0--0-00-
B|2---2---2--2--2--2-22--2--2----2---2--2--2-22-
G|2---2---2--2--2--2-22--2--2----2---2--2--2-22-
D|0---0---0--0--0--0-00--2--2----2---2--2--2-22-
A|2---2---2--2--2--2-22--0--0----0---0--0--0-00-
D|--------------------------------------------
  Call me a  cheap skate Come on for petes sake

E|--------------------------------
B|--------------------------------
G|--------------------------------
D|7-7-7-6-6-6-4-0-6-6-6-4-4-4-2-0-
A|4-4-4-4-4-4-4-0-2-2-2-2-2-2-2-0-
D|4-4-4-4-4-4-4-0-2-2-2-2-2-2-2-0-
  CRY   AGONY!    CRY   AGONY!
      
      ~   ~   ~       ~   ~   ~
E|0---0---0---0---0---0---0---0-------------------------------------
B|2---2---2---2---2---2---2---2-------------------------------------
G|2---2---2---2---2---2---2---2-------------------------------------
D|0---0---0---0---2---2---2---2-----7-7-7-6-6-6-4-0-6-6-6-4-4-4-2-0-
A|2---2---2---2---0---0---0---0-----4-4-4-4-4-4-4-0-2-2-2-2-2-2-2-0-
D|----------------------------------4-4-4-4-4-4-4-0-2-2-2-2-2-2-2-0-
                                    CRY   AGONY!    CRY   AGONY!  

      ~   ~   ~       ~   ~   ~
E|0---0---0---0---0---0---0---0------------------------------------
B|2---2---2---2---2---2---2---2------------------------------------
G|2---2---2---2---2---2---2---2------------------------------------
D|0---0---0---0---2---2---2---2-----7-7-7-6-6-6-4-0-6-6-6-4-4-4-2-0-
A|2---2---2---2---0---0---0---0-----4-4-4-4-4-4-4-0-2-2-2-2-2-2-2-0-
D|----------------------------------4-4-4-4-4-4-4-0-2-2-2-2-2-2-2-0-
                                    TRY   HONESTY!  TRY   HONESTY!

      ~   ~   ~       ~   ~   ~
E|0---0---0---0---0---0---0---0------------------------------------
B|2---2---2---2---2---2---2---2------------------------------------
G|2---2---2---2---2---2---2---2------------------------------------
D|0---0---0---0---2---2---2---2----7-7-7-6-6-6-4-0-6-6-6-4-4-4-2-0-
A|2---2---2---2---0---0---0---0----4-4-4-4-4-4-4-0-2-2-2-2-2-2-2-0-
D|---------------------------------4-4-4-4-4-4-4-0-2-2-2-2-2-2-2-0-
                                   CRY   AGONY!    CRY   AGONY!

      ~   ~   ~       ~   ~   ~
E|0---0---0---0---0---0---0---0----------------------0
B|2---2---2---2---2---2---2---2----------------------2
G|2---2---2---2---2---2---2---2----------------------2
D|0---0---0---0---2---2---2---2----7-7-7-76-6-6-6-0-0
A|2---2---2---2---0---0---0---0----4-4-4-4---2-2-2-0-2
D|---------------------------------4-4-4-4---2-2-2-0--
                                   rit.


Текст, аккорды и табулатура для песни "Try Honesty", исполняет "Billy Talent".
Используемые в песне аккорды можно найти в разделе Как брать аккорды. Аккорды для шестиструнной гитары. Другие песни можно найти на нашем сайте, воспользовавшись алфавитным указателем вверху страницы.


 
Ошибка в тексте? Выделите ошибку и нажмите Ctrl+Enter