Drop D tuning. 

intro
e-------------7-------------0-0-0-0-0-0-0--0-0-0-0-0-0-0-0-
b---7---------7-------------5-5-5-5-5-5-5--5-5-5-5-5-5-5-5-
g----8----------------------2-2-2-2-2-2-2--2-2-2-2-2-2-2-2-
d-----9-8-9-6---------------4-4-4-4-4-4-4--2-2-2-2-2-2-2-2-(x2)
a---------------------------------------------------------
d-4-------------------------------------------------------


verse
e-------------7--------------------------------------------
b---7---------7--------------------------------------------
g----8-----------------------------------------------------
d-----9-8-9-6----------------------------------------------(till whenever)
a----------------------------------------------------------
d-4--------------------------------------------------------


chorus
e-0-0-0-0-0-0-0--0-0-0-0-0-0-0--------------------
b-5-5-5-5-5-5-5--5-5-5-5-5-5-5--------------------
g-2-2-2-2-2-2-2--2-2-2-2-2-2-2--------------------
d-4-4-4-4-4-4-4--4-4-4-4-4-4-4----4-4-4-4--0-0-0-0
a---------------------------------4-4-4-4--0-0-0-0
d---------------------------------4-4-4-4--0-0-0-0


bridge (mad sweet part)
e---------5b-------------------------5b-----------------
b---------5b-------------------------5b-----------------
g---------5b-------------------------5b-----------------
d-4-4-4-4-----0-0-0-0--------3-3-3-3-------0-0-0-0-0-0-0
a-4-4-4-4-----0-0-0-0--------3-3-3-3-------0-0-0-0-0-0-0
d-4-4-4-4-----0-0-0-0--11/---3-3-3-3-------0-0-0-0-0-0-0

IM INSANE!
e-----------------------------------------------------------
b-----------------------------------------------------------
g-----------------------------------------------------------
d-4-4-2-4-2-4-2-0---------3-3-2-3-5-3-2-0-------------------
a-4-4-2-4-0-4-2-0---------3-3-2-3-5-3-2-0-------------------
d-4-4-2-4---4-2-0--11~----3-3-2-3-5-3-2-0--11h12p11-10h11p10
                   ^                       ^
                 wiggle that               do that shit fast now
                 sucker good.


ending part
e------------------------------0-----0-----
b---5---5----5---5---5---5-----------------
g--2-2-2-2--2-2-2---2-2-2-2---1-1---2--2---
d-4---4----2---2---4---4-----2-----2-------
a------------------------------------------
d------------------------------------------

thats it man now you go have fun and try to play this, if you cant
then just practice it and youll get it.. now.. go rock.


Текст, аккорды и табулатура для песни "Try Honesty", исполняет "Billy Talent".
Используемые в песне аккорды можно найти в разделе Как брать аккорды. Аккорды для шестиструнной гитары. Другие песни можно найти на нашем сайте, воспользовавшись алфавитным указателем вверху страницы.


 
Ошибка в тексте? Выделите ошибку и нажмите Ctrl+Enter