ya, all the tabs I found for this song were wrong...like...badly....
CANADIAN BANDS KICK ASS!!!  I live around where they're from, buy the 
album sept 16th!


   intro
e|-------0-------0-------0-------0-------0-------0-------0-------0-----
B|-------2-------2-------2-------2-------2-------2-------5-------5-----
G|-----2---2---2---2---2---2---2---2---2---2---2-------4-------4-------
D|-----------------------------------4-------4-----4/6-----6/7---------
A|---2-------2-------0-------0-----------------------------------------
D|---------------------------------------------------------------------

e|-------0-------0-------0-------0-------------------------------------
B|-------2-------2-------2-------2-----2---5---7-----------------------
G|-----2---2---2---2---2---2---2---2---2---4---6-----------------------
D|-------------------------------------4---6---7-----------------------
A|---2-------2-------0-------0-----------------------------------------
D|---------------------------------------------------------------------


   intro (part 2)
e|---0-0---0-0-0-0---0-0---0-0-0-0-------------------7-----------------
B|---2-2---2-2-2-2---2-2---2-2-2-2-------5-----------7-----------------
G|---2-2---2-2-2-2---2-2---2-2-2-2---------6---------------------------
D|---4-4---4-4-4-4---2-2---2-2-2-2---4-------7-6-7-4-------------------
A|-----------------------------------4---------------------------------
D|-----------------------------------4---------------------------------


   Verse
   Guitar 1
e|-------------------7-----------------7-------------------------------
B|-------5-----------7-----5-----------7-------------------------------
G|---------6-----------------6-----------------------------------------
D|-----------7-6-7-4-----------7-6-7-4---------------------------------
A|---------------------------------------------------------------------
D|---------------------------------------------------------------------
 |
 | Guitar 2
e|---------------------------------------------------------------------
B|---------------------------------------------------------------------
G|---------------------------------------------------------------------
D|---4---------0-------4---------0-------------------------------------
A|---4---------0-------4---------0-------------------------------------
D|---4---------0-------4---------0-------------------------------------



   Chorus
e|---0-0---0-0-0-0---0-0---0-0-0-0-------------------------------------
B|---2-2---2-2-2-2---2-2---2-2-2-2-------------------------------------
G|---2-2---2-2-2-2---2-2---2-2-2-2-------------------------------------
D|---4-4---4-4-4-4---2-2---2-2-2-2---4---0-----------------------------
A|-----------------------------------4---0-----------------------------
D|-----------------------------------4---0-----------------------------



   Bridge
e|-----------5b-----------9-----------5b-------------------------------
B|-----------5b-----------9-----------5b-------------------------------
G|-----------5b-----------------------5b-------------------------------
D|---4-4-4-4------0-0-0-0-----3-3-3-3------0/--------------------------
A|---4-4-4-4------0-0-0-0-----3-3-3-3------0/--------------------------
D|---4-4-4-4------0-0-0-0-----3-3-3-3------0/--------------------------

e|---------------------------------|-----------------------------------
B|---------------------------------|-----------------------------------
G|---------------------------------|-----------------------------------
D|---4---4-7-4-2-0---3---3-5-3-2-0-|---3---0---------------------------
A|---4---4-7-4-2-0---3---3-5-3-2-0-|---3---0---------------------------
D|---4---4-7-4-2-0---3---3-5-3-2-0-|---3---0---------------------------
                                      on last time play

   outro
e|---------------------------------------------------------------------
B|-------2-------2-----------------------------------------------------
G|-----2---2---2---2---------------------------------------------------
D|---4-------2--------------------------------------------------------
A|---------------------------------------------------------------------
D|---------------------------------------------------------------------
    played onto of final chorus with a vibrato effect


Текст, аккорды и табулатура для песни "Try Honesty", исполняет "Billy Talent".
Используемые в песне аккорды можно найти в разделе Как брать аккорды. Аккорды для шестиструнной гитары. Другие песни можно найти на нашем сайте, воспользовавшись алфавитным указателем вверху страницы.


 
Ошибка в тексте? Выделите ошибку и нажмите Ctrl+Enter