Intro

|--------------------------------
|--------------------------------
|--6-------6--9-9-9-9-9-9-9-9-9-9
|-6-6----6----9-9-9-9-9-9-9-9-9-9
|4---4--4-4---7-7-7-7-7-7-7-7-7-7
|--------------------------------

Verse

|------------
|------------
|--6-------6-
|-6-6----6---
|4---4--4-4--
|------------

Chorus

|----------------------------------------
|----------------------------------------
|9-9--9-9-9--9-9--9-9-9--------4--------4
|9-9--9-9-9--9-9--9-9-9-4--4-4-4-4--4-4-4
|7-7--7-7-7--7-7--7-7-7-4--4-4-2-4--4-4-2
|-----------------------2--2-2---2--2-2--

Interlude

|------------------------------------------
|------------------------------------------
|--------9^----9-9-------6-6-6----2----4--6
|7-7-7-7-9^--7-9-9-------6-6-6---2----4---6
|7-7-7-7-7^--7-7-7-------4-4-4--0----2----4
|5-5-5-5-----5-----------------------------

|-------------------------------------------------
|-------------------------------------------------
|6---2---4---6-------6---6---2---2---4---4---6---6
|6---2---4---6------6---6---2---2---4---4---6---6-
|4---0---2---4-----4---4---0---0---2---2---4---4--
|-------------------------------------------------

the interlude is split into 4 different parts

well there ya go, have fun with this song


Текст, аккорды и табулатура для песни "Try Honesty", исполняет "Billy Talent".
Используемые в песне аккорды можно найти в разделе Как брать аккорды. Аккорды для шестиструнной гитары. Другие песни можно найти на нашем сайте, воспользовавшись алфавитным указателем вверху страницы.


 
Ошибка в тексте? Выделите ошибку и нажмите Ctrl+Enter