Billy Talent
Try Honesty
Drop D

Riff 1             |-1st-----------------------|
|----------------------------------------------|
|----------------------------------------------|
|----------------------------------------------|
|---9---9---9---9---7-9-7-7-9-7--9-11-9--9-11-9|
|--7-7-7-7-7-7-7-7-9-----9-----11------12------|
|-9---9---7---7--------------------------------|

 |2nd----------|
|----------------|
|----------------|
|----------------|
|-5----7----9-9--|
|-3-X8-5-X4-7-7--|
|-3----5----7-7--|

Riff 2
|----------------------------------------|
|--------------5---------5---------------|
|-9-------------6--------5---------------|
|-9----7---------7-6-7-4-----------------|X2
|-7-X7-7-X7------------------------------|
|-7----7------4----0---------------------|

Riff 2A
|---------------------------------------|
|--------------5---------5--5---------5-|
|-9-------------6--------5---6--------5-|
|-9----7---------7-6-7-4------7-6-7-4---|
|-7-X7-7-X7-----------------------------|
|-7----7------4----0-------4----0-------|

Riff 3
|-----|
|-----|
|-----|
|-4~0~|
|-4~0~|X5
|-4~0~|

Riff 3A
|----------------------------------|
|---5---------5--------5---------5-|
|----6--------5---------6--------5-|
|-4---7-6-7-4---4~-0~-4--7-6-7-4---|
|-4-------------4~-0~-4------------|
|-4-----0-------4~-0~-4----0-------|






Riff 4
|--------------------------|
|--------------------------|
|-9------------------------|
|-9----7----7-6-4--6-4-2---|X4
|-7-X7-7-X7-7-6-4--6-4-2---|
|-7----7----7-6-4--6-4-2---|

Riff 5
|-----5~----7~----5~----^5r4^5-|
|-----5~----7~----5~----^5r4^5-|
|-----5~----7~----5~----^5r4^5-|
|-444---000---444----000-------|X2
|-444---000---444----000-------|
|-444---000---444----000-------|

Riff 6               |-1st------------||-2nd-------|
|---------------------------------------------------t-e|
|-------------------------------------------------f-i-a|
|-----------------4~-----------------2~-----------o-m-c|
|-4-4-2-4-6-4-2-0----3-3-0-3-5-3-2-0----345678910


Текст, аккорды и табулатура для песни "Try Honesty", исполняет "Billy Talent".
Используемые в песне аккорды можно найти в разделе Как брать аккорды. Аккорды для шестиструнной гитары. Другие песни можно найти на нашем сайте, воспользовавшись алфавитным указателем вверху страницы.


 
Ошибка в тексте? Выделите ошибку и нажмите Ctrl+Enter