-------------------------------------------------------------------
                      Billy Talent - Try Honestly
-------------------------------------------------------------------

Tabbed By : Andy1234
e-mail: [email protected]

Hey, this is my first tab and I think that everything is correct. Enjoy!

Drop D Tuning (D,A,D,G)

Intro (0:09)x1
G|----------------------------------------------------------------|
D|----------------------------------------------------------------|
A|----------------------------------------------------------------|
D|-4-4-4-4-4-4-4-4-2-2-2-2-4-4------------------------------------|

Intro #2 (0:12)x2
G|----------------------------------------------------------------|
D|----------------------------------------------------------------|
A|----------------------------------------------------------------|
D|-9-9--9-9-9-9~--7-7---7-7-7-7~-77-4~--------------------------|

Pre-Verse (0:24)x1
G|----------------------------------------------------------------|
D|----------------------------------------------------------------|
A|----------------------------------------------------------------|
D|-9-9--9-9-9-9~--7-7---7-7-7-7~-77-4~---4~-------------------|

Verse (0:34)x8
G|----------------------------------------------------------------|
D|----------------------------------------------------------------|
A|----------------------------------------------------------------|
D|-4~------------------------------------0~-----------------------|

Chorus(0:58)x4
G|----------------------------------------------------------------|
D|----------------------------------------------------------------|
A|----------------------------------------------------------------|
D|-9-9--9-9~--9--7-7--7-7~--7----4-4-4-4-4-4-4-4-2-2-2-2-2-2-2-2--|

Post Chorus (1:22)x1
G|----------------------------------------------------------------|
D|----------------------------------------------------------------|
A|----------------------------------------------------------------|
D|--4-------------------4-------------------------------------|

Verse x8
Chorus x4

Bridge(2:18) x2
G|----------------------------------------------------------------|
D|----------------------------------------------------------------|
A|----------------------------------------------------------------|
D|-4-4-4-4-*guitar*-0-0-0-0-*guitar*-3-3-3-3-*guitar*-0-0-0-0-----|

(2:30) x2
G|----------------------------------------------------------------|
D|----------------------------------------------------------------|
A|----------------------------------------------------------------|
D|-4-4-2-4-6-4-2-4-0-0-*guitar*-3-3-0-3-5-3-2-2-0-0-*guitar*------|

(2:42)
G|----------------------------------------------------------------|
D|----------------------------------------------------------------|
A|----------------------------------------------------------------|
D|-4-4-2-4-6-4-2-4-0-0-*guitar*-2-2-2-2-2-2-2-2-2-2-2-2-2-2-------|

(2:51)The Guitar Part (no bass) Then:

Bridge #2 (2:57) x3
G|----------------------------------------------------------------|
D|----------------------------------------------------------------|
A|----------------------------------------------------------------|
D|-9-9--9-9-9-9~--7-7--7-7-7-7~--4-4--4-4-4-4~--2-2--2-4-4--------|

Chorus x4

Ending (3:41)x3
G|----------------------------------------------------------------|
D|----------------------------------------------------------------|
A|----7-9-7---5-7-5-----------------------------------------------|
D|-9---------7---------4-4-4-4-4-4-4-4-2-2-2-2-2-2-2-2------------|

(3:59)x1
G|----------------------------------------------------------------|
D|----------------------------------------------------------------|
A|----7-9-7---5-7-5----2-4-2---0-2-0------------------------------|
D|-9---------7---------4---------2---------4~~--------------------|

~ = let ring


Текст, аккорды и табулатура для песни "Try Honestly", исполняет "Billy Talent".
Используемые в песне аккорды можно найти в разделе Как брать аккорды. Аккорды для шестиструнной гитары. Другие песни можно найти на нашем сайте, воспользовавшись алфавитным указателем вверху страницы.


 
Ошибка в тексте? Выделите ошибку и нажмите Ctrl+Enter