-------------------------------------------------------------------------------
                Billy Talent - This Is How It Goes
-------------------------------------------------------------------------------

Tabbed By : Andy1234
e-mail: [email protected]

Hey, this is my second Billy Talent tab. This is the demo version and below
is the album version. Questions or Comments, E-mail me.

Drop D Tuning (D,A,D,G)

Intro (0:17) x2
G|---------------9-10----9---------------------------------------------|
D|---------7-8---------------------------------------------------------|
A|--5-5----------------------------------------------------------------|
D|---------------------------------------------------------------------|

 Intro #2 (Chorus) (0:26) x4
G|---------------------------------------------------------------------|
D|---------------------------------------------------------------------|
A|--------------1-1--1-1-1-----------------0-0--0-0-0------------------|
D|-0-0--0-0-0-----------------3-3--3-3-3-------------------------------|

Verse (0:43)x6
G|---------------------------------------------------------------------|
D|------5-7-8--8-7-5---------------------------------------------------|
A|-5-5----------------8-7--8-8---8-7-5-0-------------------------------|
D|---------------------------------------------------------------------|

 Pre-Chorus(1:09) x4
G|---------------------------------------------------------------------|
D|-0-0-7-0----2----0-12--7--0-7-0-------------------------------------|
A|---------0----0------------------------------------------------------|
D|---------------------------------------------------------------------|

Chorus(1:27) x4
Verse(1:43) x6
Pre-Chorus(2:09) x4
Chorus(2:26) x8

Break (3:00)
G|----------------------------------------------------------------------|
D|----------------------------------------------------------------------|
A|-5-------------------------------------------------------------------|
D|----------------------------------------------------------------------|

(3:09) x3
G|-------------------------------------------------------------------------------|
D|-------------------------------------------------------1-2-3-3-3-3-------------|
A|-5-5-5-5-5-5--5------------------5-5-3-3--1-1-1-1-1-1---------------3-3-3-1-3--|
D|-----------------3--5-5-5-5-5-5------------------------------------------------|

(3:35)(play each note 16 times. Play the 2 last sets of 3's 8 times) x2
G|-------------------------------------------------------------------------------------|
D|-----------------------------------------------------3-3-3-3-3-3-3-3-----------------|
A|-5-5-5-5-5-5-5-5-------------------1-1-1-1-1-1-1-1---------------------3-3-3-3-3-1-3-|
D|------------------5-5-5-5-5-5-5-5----------------------------------------------------|

Chorus(3:52) x4

Ending(4:09)

G|-------
D|-------
A|-------
D|-0-0-0


--------------------------------------------------------------------------------------
Now this is the album version for This Is How It Goes

Drop D Tuning (D,A,D,G)

 Intro (0:09) (Play each note 8 times)
G|------------------------------------------------------------|
D|------------------------------------------------------------|
A|-5-5-5-5--1-1-1-1--0-0-0-0--4-4-4-4-------------------------|
D|------------------------------------------------------------|

(0:13)
G|------------------------------------------------------------|
D|------------------------------------------------------------|
A|-5-5-5-5--1-1-1-1--0-0-0-0----------------------------------|
D|------------------------------------7-7-7-3-3-3-------------|

 Chorus (0:18) x4
G|------------------------------------------------------------|
D|------------------------------------------------------------|
A|--------------1-1--1-1-1--------------0-0--0-0-0------------|
D|-0-0--0-0-0---------------3-3--3-3-3------------------------|

Verse (0:36) x3
G|------------------------------------------------------------|
D|------------------------------------------------------------|
A|-5-5-5-5--1-1-1-1--0-0-0-0--4-4-4-4-------------------------|
D|------------------------------------------------------------|

Verse 2(0:49)
G|------------------------------------------------------------|
D|------------------------------------------------------------|
A|-5-5-5-5--1-1-1-1--0-0-0-0----------------------------------|
D|----------------------------7-7-7-3-3-3---------------------|

Chorus (0:54) x4
Verse (1:12) x5
Verse 2(1:33)x1
Chorus (1:38) x8

Break (2:14) 
G|-----------------------------------------------------------------------------|
D|-----------------------------------------------------------------------------|
A|-5--------(5)--------(5)--------(5)--------(5)--------(5)--------(5)--------|
D|-----------------------------------------------------------------------------|

(2:22) x3
G|-----------------------------------------------------------------------------|
D|-----------------------------------------------------1-2-3-3-3-3-------------|
A|-5-5-5-5-5-5--5----------------5-5-3-3--1-1-1-1-1-1---------------3-3-3-1-3--|
D|----------------3--5-5-5-5-5-5-----------------------------------------------|

(2:49)(play the first 3 notes 16 times. Play the last 2 notes 8 times)
G|------------------------------------------------------------------------------------|
D|------------------------------------------------------------------------------------|
A|-5-5-5-5-5-5-5-5-----------------1-1-1-1-1-1-1-1-------------------3-3-3-3-3-1-3----|
D|-----------------5-5-5-5-5-5-5-5------------------3-3-3-3-3-3-3-3-------------------|

(2:58)(play the first 3 note 16 times. Play the 2nd last note 8 times ) 
G|------------------------------------------------------------------------------------|
D|------------------------------------------------------------------------------------|
A|-5-5-5-5-5-5-5-5-------------------1-1-1-1-1-1-1-1----------------------------------|
D|------------------5-5-5-5-5-5-5-5-------------------3-3-3-3-3-3-3-3--7-7-7-3-3-3----|

Chorus (3:07) x4

Ending(3:26)
G|-------
D|-------
A|-------
D|-0-0-0-


Текст, аккорды и табулатура для песни "This Is How It Goes", исполняет "Billy Talent".
Используемые в песне аккорды можно найти в разделе Как брать аккорды. Аккорды для шестиструнной гитары. Другие песни можно найти на нашем сайте, воспользовавшись алфавитным указателем вверху страницы.


 
Ошибка в тексте? Выделите ошибку и нажмите Ctrl+Enter