ok this song is awsome.. and here we go!


e|--------------------------------------------------------------------------|
B|----3-3-----------------------------5-5------------3-3--------------------|
G|----4-4-----------------------------5-5------------4-4--------------------|
D|----4-4--0-2--4-5-4--4-0-5-4-2-0----5-5--0-4--4-0--4-4--0-2--4-5-4--4-0-5-|
A|----2-2--0-2--4-5-4--4-0-5-4-2-0----3-3--0-4--4-0--2-2--0-2--4-5-4--4-0-5-|
D|---------0-2--4-5-4--4-0-5-4-2-0---------0-4--4-0-------0-2--4-5-4--4-0-5-|

  ------------------------|
  --------5-5-------------|
  --------5-5-------------|
  -4-2-0--5-5--0-4--4-0---|  INTRO
  -4-2-0--3-3--0-4--4-0---|  (continued from top line)
  -4-2-0-------0-4--4-0---|


e|---0---------0---|
B|---3---------3---|
G|---4-------0-4---| VERSE -{Let ring}
D|---4------4--4---|
A|-----------------| (My head, it hurts...)
D|-----------------|

e|------------------------------|
B|----------------7-7--5-5--3---|
G|----------------7-7--6-6--4---|(x3)
D|--22-454--4-0---7-7--6-6--4---|
A|--22-454--4-0---5-5--4-4--2---|
D|--22-454--4-0-----------------|

-------------------------------------------|
----------------7-7-7-7--2-2-2-2-2-2-2-2---| Pre-Chorus
----------------7-7-7-7--2-2-2-2-2-2-2-2---|
--22-454--4-0---7-7-7-7--3-3-3-3-3-3-3-3---| 4th Time
--22-454--4-0---5-5-5-5--4-4-4-4-4-4-4-4---| play this
--22-454--4-0------------------------------|


CHORUS (same as intro!)

e|-----------------------------------|
B|------3v------2v-------------------|
G|------------------------------4p0--| After Chorus Play This
D|----4-------2--------4p0------0----|  (x2)
A|--2-------0--------0--------5------|
D|-----------------0--------5--------|

REPEAT VERSE
REPEAT PRE-CHORUS
REPEAT CHORUS (x2)

e|--0-0--0-0---------------------------|
B|--7-7--5-3---------------------------|
G|--7-7--6-4-0--7-6-7/4-2-0-------2-0--|
D|--------------------------4-0--------| BRIDGE (x2)
A|------------------------------2------|
D|-------------------------------------|

REPEAT PRE-CHORUS

e|-----------------------------------------|      -------------|
B|-----------------------------------------|      -------------|
G|-----------------------------------------|palm  -------------| not palm
D|--4-4-4------------------------------(x3)|muted --5-5-5-5----| muted
A|--2-2-2-0-2-2-4-5-4-4-4-4-5-4-2-0--------|      --4-4-4-4--4-|
D|--------0-2-2-4-5-4-4-4-4-5-4-2-0--------|      -----------4-|

REPEAT CHORUS TO END and play:
e|---0---|
B|---3---|
G|---4---| ENDING CHORD
D|---4---|
A|-------|
D|-------|

Yar, [email protected]


Текст, аккорды и табулатура для песни "Standing In The Rain", исполняет "Billy Talent".
Используемые в песне аккорды можно найти в разделе Как брать аккорды. Аккорды для шестиструнной гитары. Другие песни можно найти на нашем сайте, воспользовавшись алфавитным указателем вверху страницы.


 
Ошибка в тексте? Выделите ошибку и нажмите Ctrl+Enter