-------------------------------------------------------------------------------
			     River Below - Billy Talent
-------------------------------------------------------------------------------
Tabbed by: Daniel Gonsalves
I changed some stuff, i had a typo in the other one.

===============================================================================
| /  slide up
|   slide down
===============================================================================
Tuning: Drop - D

Intro/Repeated Riff            (If you want to play the bass part)
e|----------------------------|----------------------------------| 
B|-----3---4-3-1--------------|----------------------------------|
G|00-30-030------3-2-0--------|----------------------------------|
D|---------------------3-1----|-5------------0-------------------|
A|----------------------------|-5-*5 Times---0--*Bunch of Times--|
D|----------------------------|-5------------0-------------------|

Verse
e|----------------------------|-------------|
B|---3---------4(Dont play---)|--3--7-------|
G|-3---3-2-3-5--(on last time)|--3--7-------|
D|----------------------------|-------------|
A|----------------------------|-Listen-For--|
D|----3 Times-----------------|-Strumming---|

Pre-Chorus
e|-----------------------------------|                |-----|
B|----4---/----8-------3---/----7---|                |--7--|
G|--5---5-/--8---8---3---3-/--7---7-|                |--7--|
D|-5------/-8-------3------/-7------| x 2 Last Time  |--5--|
A|-3------/-6-------1------/-5------|      End On    |-----|
D|-----------------------------------|

Chorus (I dunno if its mainly the bass playing but this is what i do)
e|-----------------|-(--4-|-2-|------)-|------------------|
B|-----------------|-(--3-|-2-|------)-|------------------|
G|-----------------|-(This part i can)-|------------------|
D|-5-|-0-|-1-|-8-|-|-(barely make out)-|-10-|-5-|-0-|-1-|-|  x 2
A|-5-|-0-|-1-|-8-|-|----(Optional)-----|-10-|-5-|-0-|-1-|-|
D|-5-|-0-|-1-|-8-|-|                   |-10-|-5-|-0-|-1-|-|

Back to Intro Riff

The rest is pretty much the same.


Текст, аккорды и табулатура для песни "River Below", исполняет "Billy Talent".
Используемые в песне аккорды можно найти в разделе Как брать аккорды. Аккорды для шестиструнной гитары. Другие песни можно найти на нашем сайте, воспользовавшись алфавитным указателем вверху страницы.


 
Ошибка в тексте? Выделите ошибку и нажмите Ctrl+Enter