ARTIST: Billy Talent
TITLE:  Prisoners Of Today
ALBUM:  Billy Talent
GENRE:  Punk Rock
YEAR:   2003

---

Intro Part 1:

e|-----------------------------------------------------------------------|
B|-----------------------------------------------------------------------|
G|----10-----9-----7--------7---7---7---9-----7-----5-------5---5---5----|
D|--0----0-0---0-0---0-0-10---9---7---0---0-0---0-0---0-0-9---7---5---0--|
A|-----------------------------------------------------------------------|
D|-----------------------------------------------------------------------|

e|-----------------------------------------------------------|
B|-----------------------------------------------------------|
G|--4-4-4-7-7-4-7-7-4-7-7-4-7b-4-4-4-4-7-7-4-7-7-4-7-7-4-7b~-|
D|--0-0-0-0-0-0-0-0-0-0-0-0-0--0-0-0-0-0-0-0-0-0-0-0-0-0-0---|
A|-----------------------------------------------------------|
D|-----------------------------------------------------------|

---

Intro Part 2:

Guitar 1:

e|-------------------------------------------------------------------------|
B|-------------------------------------------------------------------------|
G|--10-10-10-9-9-9-7-7-7------------------9-9-9-7-7-7-5-5-5-4-4-4----------|
D|-----------------------10-10-10-9-9-7-7-------------------------7-7-5-5--|
A|-------------------------------------------------------------------------|
D|-------------------------------------------------------------------------|

e|-------------------------------------------------------------|
B|-------------------------------------------------------------|
G|--4-4-4-7-7-4-7-7-4-7-7-4-7b-7-4-4-4-7-7-4-7-7-4-7-7-4-7b-7--|
D|-------------------------------------------------------------|
A|-------------------------------------------------------------|
D|-------------------------------------------------------------|

Guitar 2:

e|------------------------------|
B|------------------------------|
G|------------------------------|
D|--7------5------4------5------|
A|--5-x16--3-x16--2-x16--3-x16--|
D|------------------------------|

---

Verse Part 1:

e|-------------------------------------|
B|-------------------------------------|
G|-------------------------------------|
D|--2-2---0-0-2-2---0-0-2-2---0-0-2-2--|
A|-------------------------------------|
D|-------------------------------------|

---

Verse Part 2:

e|------3-3---------5-5---------1-1---------5-5--|
B|------3-3---------5-5---------1-1---------5-5--|
G|------3-3---------5-5---------1-1---------5-5--|
D|--2-2-----0-0-2-2-----0-0-2-2-----0-0-2-2------|
A|-----------------------------------------------|
D|-----------------------------------------------|

---

Bridge Part 1:

e|--------------------------------------------------|
B|--------------------------------------------------|
G|--7-7--7-7-7--5-5--5-5-5--4-4--4-4-4--5-5--5-5-5--|
D|--7-7--7-7-7--5-5--5-5-5--4-4--4-4-4--5-5--5-5-5--|
A|--5-5--5-5-5--3-3--3-3-3--2-2--2-2-2--3-3--3-3-3--|
D|--------------------------------------------------|

---

Bridge Part 2:

e|--------------------------|
B|--------------------------|
G|--7-----5-----4-----5-----|
D|--7-----5-----4-----5-----|
A|--5-x8--3-x8--2-x8--3-x8--|
D|--------------------------|

---

Song Order:

Intro Part 1		x1
Intro Part 2		x1
Verse Part 1		x2
Verse Part 2		x2
Intro Part 1		x1
Verse Part 2		x1
Verse Part 1		x2
Verse Part 2		x2
Intro Part 1		x1
Intro Part 2		x2
Bridge Part 1		x4
Bridge Part 2		x2
Intro Part 1		x2
Intro Part 2		x4

---

If you have any questions, comments, corrections, or whatever, my MSN Messenger address
is [email protected] You can email me there too if you want, but I don't check that address
all that often.


Текст, аккорды и табулатура для песни "Prisoners Of Today", исполняет "Billy Talent".
Используемые в песне аккорды можно найти в разделе Как брать аккорды. Аккорды для шестиструнной гитары. Другие песни можно найти на нашем сайте, воспользовавшись алфавитным указателем вверху страницы.


 
Ошибка в тексте? Выделите ошибку и нажмите Ctrl+Enter