Tabed by: Stevo Gunn
Band:Billy Talent
Song: Cut The Curtains
drop D tuning: low to high D A D G B e

Intro:             
e|--------------------------------------------|
B|--------------------------------------------|
G|--------------------------------------------|
D|--------------------------------------------|  x4
A|--3/7--0-0-7--0-0-7--0-7--5-5-7--53-3-5-3--|
D|--3/7--0-0-7--0-0-7--0-7--5-5-7--53-3-5-3--|
pm       . .    . .    .    . .     

Verse part1:     
e|---------------------------------|
B|---------------------------------|
G|----0-2-0------------------------|
D|----------3-1---8-7-3------------|
A|--0-----------5-----3---0--------|
D|--0-----------5-----3---0--------|
verse part2:
e|---------------------------------------|
B|---------------------------------------|
G|---------------------------------------|
D|---------------------------------------|
A|--0-0-7--0-0-7--0-7--5-5-7--53-3-5-3--|
D|--0-0-7--0-0-7--0-7--5-5-7--53-3-5-3--|
pm  . .    . .    .    . .
   
verse part3:                  
e|----------------------------------------|
B|----------------------------------------|
G|----------------------------------------|
D|----------------------------------------| x3
A|--3/7--0-0-7--0-0-7--0-7--5-5-5--3-3-3--|
D|--3/7--0-0-7--0-0-7--0-7--5-5-5--3-3-3--|
pm       . . .  . . .  . .  . . .  . . .
verse part4:     
e|------------------------------------------|
B|------------------------------------------|
G|------------------------------------------|
D|------------------------------------------|
A|--0-0-7--0-0-7--0-7--5-5-7-5--57-7-10-7--|
D|--0-0-7--0-0-7--0-7--5-5-7-5--57-7-10-7--|

Chorus:
e|-----------------------------------------------|     
B|-----------------------------------------------|      
G|-----------------------------------------------|       
D|-----------------------------------------------|       
A|--0-0-0/7--0-0-0/7--0-0/7--5-5-7--53-3-5-1-1--|       
D|--0-0-0/7--0-0-0/7--0-0/7--5-5-7--53-3-5-1-1--|       
                                                         
e|------------------------------------------------|      
B|------------------------------------------------|      
G|------------------------------------------------|      
D|------------------------------------------------|      
A|--0-0-0/7--0-0-0/7--0-0/7--5-5-7-5--57-7-10-7--|      
D|--0-0-0/7--0-0-0/7--0-0/7--5-5-7-5--57-7-10-7--|    

After Chorus Bit
e|--------------------------------|      
B|--------------------------------|      
G|--------------------------------|      
D|----0-1-0-----------7----5---3--|      
A|--0-------2-0----55---33---1----|      
D|--0-----------5--55---33---1----|

verse parts 1-4
chorus

Solo: (listen for timing)
e|------5----------------------------|      
B|--6-3---6-3--3-5-5b-5-3-1-3--------|      
G|------------2----------------------|      
D|-----------------------------------|      
A|-----------------------------------|     
D|-----------------------------------|

e|-----------------------------------|      
B|--------3-----3-5-5b-5-3-1-3-------|      
G|--0h1-2---2-2----------------------|      
D|-----------------------------------|      
A|-----------------------------------|      
D|-----------------------------------|

e|----------------------------------------|
B|----------------------------3-----3-----|
G|--0h1-2-0-------------3-1-2---2-2---2-2-|
D|----------3-2-3-5-3-2-------------------| 
A|----------------------------------------|
D|----------------------------------------|

e|-----------------------------------|     
B|--6-3-3-6-3--3-5-5b-5-3-1-3--------|      
G|------------2----------------------|      
D|-----------------------------------|      
A|-----------------------------------|     
D|-----------------------------------|

e|-----------------------------------|      
B|--------3-----3-5-5b-5-3-1-3-------|      
G|--0h1-2---2-2----------------------|      
D|-----------------------------------|      
A|-----------------------------------|      
D|-----------------------------------|

e|-----------------------------------|
B|-----------------------------------|
G|--0h1-2-0-------------3-1-2------2-|
D|----------3-2-3-5-3-2--------------| 
A|-----------------------------------|
D|-----------------------------------|

after solo:
e|---------------------------------------|
B|---------------------------------------|
G|---------------------------------------|
D|---------------------------------------| x2
A|--0-0-7--0-0-7--0-7--5-5-7--53-3-5-3--|
D|--0-0-7--0-0-7--0-7--5-5-7--53-3-5-3--|
    ^ ^    ^ ^    ^    ^ ^   
              
e|--------------------------------------------|
B|--------------------------------------------|
G|--------------------------------------------|
D|--------------------------------------------|  x6
A|--3/7--0-0-7--0-0-7--0-7--5-5-7--3-3-5-3----|  fade out
D|--3/7--0-0-7--0-0-7--0-7--5-5-7--3-3-5-3----|
         ^ ^ ^  ^ ^ ^  ^ ^  ^ ^ ^  ^ ^ ^ ^

 
Outro (No Time to Fold):     
e|----1-0-1-0-1-0-----------------|      
B|----3-3-3-3-3-3-----------------|      
G|--------------------------------|      
D|--------------------7----5---3--|  x4      
A|--0--------------55---33---1----|      
D|--0--------------55---33---1----|

Chorus:

any questions/comments email me at [email protected] 
and thats it, enjoy


Текст, аккорды и табулатура для песни "Cut The Curtains", исполняет "Billy Talent".
Используемые в песне аккорды можно найти в разделе Как брать аккорды. Аккорды для шестиструнной гитары. Другие песни можно найти на нашем сайте, воспользовавшись алфавитным указателем вверху страницы.


 
Ошибка в тексте? Выделите ошибку и нажмите Ctrl+Enter