Intro 

|-44444444-55555555-44444444-77777777- 
|-55555555-55555555-55555555-77777777- 
|------------------------------------- 
|------------------------------------- 
|------------------------------------- 
|------------------------------------- 

|-44444444-55555555-44444444--7-5-4-5-4------- 
|-55555555-55555555-55555555------------7-5-4- 
|--------------------------------------------- 
|--------------------------------------------- 
|--------------------------------------------- 
|--------------------------------------------- 
 
|----0----0----0----0----0----0----0----0-7-0-5-0-4-0-2-0------- 
|-55---44---22---00---55---44---22---00-------------------5-4-2- 
|--------------------------------------------------------------- 
|--------------------------------------------------------------- 
|--------------------------------------------------------------- 
|--------------------------------------------------------------- 


|---------------------------------------------------------------------------- 
|---------------------------------------------------------------------------- 
|-----------------999-7-6-999-7-6-----------------4-4-4-4-4-4-4-4------------
|-666-7-9-666-7-9-777-7-7-777-7-7-666-7-9-666-7-9-4-4-4-4-4-4-4-4------------ 
|-777-7-7-777-7-7-----------------777-7-7-777-7-7-2-2-2-2-2-2-2-2-PickScrape- 
|----------------------------------------------------------------------------

(vibrato)
|---------------------------------5-0-4-0-2-0-4-0-5-0-4-0-2-0-4-0- 
|-5-0-4-0-2-0-4-0-5-0-4-0-2-0-4-0--------------------------------- 
|----------------------------------------------------------------- 
|----------------------------------------------------------------- 
|----------------------------------------------------------------- 
|----------------------------------------------------------------- 

|---------------------------------22-222-2-4-5-4-2- 
|-5-0-4-0-2-0-4-0-5-0-4-0-2-0-4-0-00-000-0-0-0-0-0- 
|-------------------------------------------------- 
|-------------------------------------------------- 
|-------------------------------------------------- 
|-------------------------------------------------- 

Verse
|-------------------------------------------------------------------------- 
|-------------------------------------------------------------------------- 
|-1313131313-1010101010-99999-888888-44444-1313131313-11111111111111111111- 
|-x-x-x-x-x--x-x-x-x-x--xxxxx-xxxxxx-xxxxx-x-x-x-x-x--x-x-x-x-x-x-x-x-x-x-- 
|-1111111111-8-8-8-8-8--77777-666666-22222-1111111111-9-9-9-9-9-9-9-9-9-9-- 
|-------------------------------------------------------------------------- 

|-------------------------------------------------------------------------- 
|-------------------------------------------------------------------------- 
|-1313131313-1010101010-99999-888888-44444-1313131313-11111111111111-9-8-6- 
|-x-x-x-x-x--x-x-x-x-x--xxxxx-xxxxxx-xxxxx-x-x-x-x-x--x-x-x-x-x-x-x--x-x-x- 
|-1111111111-8-8-8-8-8--77777-666666-22222-1111111111-9-9-9-9-9-9-9--7-6-4- 
|-------------------------------------------------------------------------- 

Chorus 
|--------------------------------------------------------------- 
|--------------------------------------------------------------- 
|-44444-4-6/8-9999-4444-13-13-13-13-13-13-13-13-111111111-9-8-6- 
|-xxxxx-x-x---xxxx-xxxx-x--x--x--x--x--x--x--x--x-x-x-x-x-x-x-x-
|-22222-2-4/6-7777-2222-11-11-11-11-11-11-11-11-9-9-9-9-9-7-6-4- 
|--------------------------------------------------------------- 

|--------------------------------------------------------------- 
|--------------------------------------------------------------- 
|-44444-4-6/8-9999-4444-13-13-13-13-13-13-13-13-1111111-9-9-8-6- 
|-xxxxx-x-x---xxxx-xxxx-x--x--x--x--x--x--x--x--x-x-x-x-x-x-x-x-
|-22222-2-4/6-7777-2222-11-11-11-11-11-11-11-11-9-9-9-9-7-7-6-6- 
|--------------------------------------------------------------- 


|----------------------------------------------------------------- 
|-----------------------------------------------------------------
|-----------------999-7-6-999-7-6-----------------4-4-4-4-4-4-4-4-
|-666-7-9-666-7-9-777-7-7-777-7-7-666-7-9-666-7-9-4-4-4-4-4-4-4-4- 
|-777-7-7-777-7-7-----------------777-7-7-777-7-7-2-2-2-2-2-2-2-2- 
|-----------------------------------------------------------------

(vibrato)
|---------------------------------5-0-4-0-2-0-4-0-5-0-4-0-2-0-4-0- 
|-5-0-4-0-2-0-4-0-5-0-4-0-2-0-4-0--------------------------------- 
|----------------------------------------------------------------- 
|----------------------------------------------------------------- 
|----------------------------------------------------------------- 
|----------------------------------------------------------------- 

|---------------------------------22-222-2-4-5-4-2- 
|-5-0-4-0-2-0-4-0-5-0-4-0-2-0-4-0-00-000-0-0-0-0-0- 
|-------------------------------------------------- 
|-------------------------------------------------- 
|-------------------------------------------------- 
|--------------------------------------------------

Solo (not all strummed just once)
|-------------------------------------------
|----------------12-10-9-7-9-10---12-10-9-7-
|-9-8-6-4-2-1----x--x--x-x-x-x----x--x--x-x-
|-x-x-x-x-x-x-4--9--7--6-4-6-7----9--7--6-4-
|-7-6-4-2-0-0-x-----------------------------
|-------------2-----------------------------

Verse
|-------------------------------------------------------------------------- 
|-------------------------------------------------------------------------- 
|-1313131313-1010101010-99999-888888-44444-1313131313-11111111111111111111- 
|-x-x-x-x-x--x-x-x-x-x--xxxxx-xxxxxx-xxxxx-x-x-x-x-x--x-x-x-x-x-x-x-x-x-x-- 
|-1111111111-8-8-8-8-8--77777-666666-22222-1111111111-9-9-9-9-9-9-9-9-9-9-- 
|-------------------------------------------------------------------------- 

|-------------------------------------------------------------------------- 
|-------------------------------------------------------------------------- 
|-1313131313-1010101010-99999-888888-44444-1313131313-11111111111111-9-8-6- 
|-x-x-x-x-x--x-x-x-x-x--xxxxx-xxxxxx-xxxxx-x-x-x-x-x--x-x-x-x-x-x-x--x-x-x- 
|-1111111111-8-8-8-8-8--77777-666666-22222-1111111111-9-9-9-9-9-9-9--7-6-4- 
|-------------------------------------------------------------------------- 

Chorus
|--------------------------------------------------------------- 
|--------------------------------------------------------------- 
|-44444-4-6/8-9999-4444-13-13-13-13-13-13-13-13-111111111-9-8-6- 
|-xxxxx-x-x---xxxx-xxxx-x--x--x--x--x--x--x--x--x-x-x-x-x-x-x-x-
|-22222-2-4/6-7777-2222-11-11-11-11-11-11-11-11-9-9-9-9-9-7-6-4- 
|--------------------------------------------------------------- 

|--------------------------------------------------------------- 
|--------------------------------------------------------------- 
|-44444-4-6/8-9999-4444-13-13-13-13-13-13-13-13-1111111-9-9-8-6- 
|-xxxxx-x-x---xxxx-xxxx-x--x--x--x--x--x--x--x--x-x-x-x-x-x-x-x-
|-22222-2-4/6-7777-2222-11-11-11-11-11-11-11-11-9-9-9-9-7-7-6-6- 
|--------------------------------------------------------------- 

Bridge
|----------------------------------------- 
|----------------------------------------- 
|------------------------6----6----6----6- 
|----6----6----6----6-77---77---77---77--- 
|-77---77---77---77----------------------- 
|----------------------------------------- 

|----------------------------------------- 
|----------------------------------------- 
|----------------------------------------- 
|----6----6----6----6--------------------- 
|-77---77---77---77------6----6----6----6- 
|---------------------77---77---77---77--- 

|---------------------------------------------------------------------
|---------------------------------------------------------------------
|-------------------9--7--6--9--7--6----------------------------------
|-6--7--9--6--7--9--7--7--7--7--7--7--6--7--9--6--7--9---4------------
|-7--7--7--7--7--7--------------------7--7--7--7--7--7---2------------ 
|----------------------------------------------------------Pick Slide-

Outro (vibrato)
|---------------------------------5-0-4-0-2-0-4-0-5-0-4-0-2-0-4-0-
|-5-0-4-0-2-0-4-0-5-0-4-0-2-0-4-0---------------------------------
|-----------------------------------------------------------------
|-----------------------------------------------------------------
|-----------------------------------------------------------------
|-----------------------------------------------------------------

|---------------------------------222-444-555-4-0-
|-5-0-4-0-2-0-4-0-5-0-4-0-2-0-4-0-000-000-000-0-0-
|-------------------------------------------------
|-------------------------------------------------
|-------------------------------------------------
|-------------------------------------------------


Текст, аккорды и табулатура для песни "Boardumb", исполняет "Bigwig".
Используемые в песне аккорды можно найти в разделе Как брать аккорды. Аккорды для шестиструнной гитары. Другие песни можно найти на нашем сайте, воспользовавшись алфавитным указателем вверху страницы.


 
Ошибка в тексте? Выделите ошибку и нажмите Ctrl+Enter