artist:  big tent revival
song:  fill me with your spirit
album:  choose life
tabbed by:  ryan mckee
email:  [email protected]

**note** this tab isn't set up in the
	traditional verse/chorus setup
	because the structure of this 
	song is strange.  i tabbed it
	in the order they go..have fun 
	this is a great song!


               *=do only first time            x2
g-|-------||-----------------------------------||
d-|-------||---------5h7p5---------------------||
a-|-------||---0h2---------7-3-3-3-0-----------||
e-|--9/3*-||-3-----5-----------------3-3-3-0-3-||

i remember clearly...        x2
g-|--------------------------||
d-|--------------------------||*
a-|--0-5-5-0-5-5-0-3-3-0-3-3-||*  
e-|--------------------------||

g-|---------------------------------------------------------------------------||
d-|---------5-5---------------------------------------------------------------||
a-|-------5-----------------------3-3-0-3-3-3---------------3-3-0-5-5---------||
e-|-0-3-3-------0-3-5-5-0-5-5-5-0-------------0-5-5-0-5-5-0-----------0-3h5-3-||

jesus, fill me with...                  x2  
g-|-------------------------------------||
d-|---------5h7p5-----------------------||*
a-|---0h2---------7-3-3-3-0-5-5---------||*
e-|-3-----5---------------------0-3h5-3-||

let all creation...
g-|-----------------------------------------------------------||
d-|-----------------------5h7-5-----5h7-5---------------------||
a-|---5h7-5-----5h7-5-----------7---------7-3-3-0-5-5---------||
e-|-0-------7-0-------7-5---------5-------------------0-3h5-3-||

jesus, fill me with...                    lord i must confess...    x2
g-|-------------------------------------||--------------------------||
d-|---------5h7p5-----------------------||--------------------------||*
a-|---0h2---------7-3-3-3-0-5-5---------||--0-5-5-0-5-5-0-3-3-0-3-3-||*
e-|-3-----5---------------------0-3h5-3-||--------------------------||

g-|---------------------------------------------------------------------------||
d-|---------5-5---------------------------------------------------------------||
a-|-------5-----------------------3-3-0-3-3-3---------------3-3-0-5-5---------||
e-|-0-3-3-------0-3-5-5-0-5-5-5-0-------------0-5-5-0-5-5-0-----------0-3h5-3-||

jesus, fill me with...                  x2  
g-|-------------------------------------||
d-|---------5h7p5-----------------------||
a-|---0h2---------7-3-3-3-0-5-5---------||
e-|-3-----5---------------------0-3h5-3-||

let all creation...
g-|-----------------------------------------------------------||
d-|-----------------------5h7-5-----5h7-5---------------------||
a-|---5h7-5-----5h7-5-----------7---------7-3-3-0-5-5---------||
e-|-0-------7-0-------7-5---------5-------------------0-3h5-3-||

la la la la la...                       x2  
g-|-------------------------------------||
d-|---------5h7p5-----------------------||*
a-|---0h2---------7-3-3-3-0-5-5---------||*
e-|-3-----5---------------------0-3h5-3-||

i can live... 
g-|-------------------------------------------------------||
d-|---------7-5---5h7-------------------3-5-3-5-----------||
a-|---5h7-------5-----3-0-3-0-3---0-3-5-----------0-3-5---||
e-|-0-----5---------------------3---------------3-------3-||

::guitar break::

jesus, fill me with...                  x5   
g-|-------------------------------------||
d-|---------5h7p5-----------------------||
a-|---0h2---------7-3-3-3-0-5-5---------||
e-|-3-----5---------------------0-3h5-3-||

theres a run after 5 times on the D
it goes like this:  just got back to
the regular part after it on the G.
g-|-----------------------||
d-|---3---5-3-------------||
a-|-5---5-----5-3h5-3-----||
e-|-------------------5-3-||

thats it, i picked this entire song up by ear.
listen to the cd for timing on stuff. email me
with comments or questions.


Текст, аккорды и табулатура для песни "Fill Me With Your Spirit", исполняет "Big Tent Revival".
Используемые в песне аккорды можно найти в разделе Как брать аккорды. Аккорды для шестиструнной гитары. Другие песни можно найти на нашем сайте, воспользовавшись алфавитным указателем вверху страницы.


 
Ошибка в тексте? Выделите ошибку и нажмите Ctrl+Enter