Artist: Big Sugar
Song: Let it ride
Tabber: Samuel Scheideman
Comments: Bachman-Turner-Overdrive cover, I enjoy it more then the original...
and again I am short on the solo parts. 
Tuning: Dropped down one whole step. DGCFAD 
E-mail addy: [email protected]


Intro rhythm/ chorus:
    C G D E A7 E   D
D---------------------------
A---------------------------
F--2--2--1-----2-2-------1--
C--0--2--2--4--4-4--4----2--
G--0--0--2--4--2-2--4----2--
D-----------2-------2-------

Intro lead part:
D-------------------------------
A-------------------------------
F-------------------------------
C---12-11--14-11--12-9-11-------
G-------------------------12-9--
D-------------------------------

Chorus:
D---------------------------
A---------------------------
F--2--2--1-----2-2-------1--
C--0--2--2--4--4-4--4----2--
G--0--0--2--4--2-2--4----2--
D-----------2-------2-------


Verse:
First verse is with an organ; Repeat as much as needed
D--------------------------
A--------------------------
F--------------------------
C--4-x-x-4-x-x-4-x-x-2h4---
G--4-x-x-4-x-x-4-x-x-2h4---
D--2-x-x-2-x-x-2-x-x-2-----

End on
D-----------------
A-----------------
F--------1-1-1-1--
C--4-4-4-2-2-2-2--
G--4-4-4-2-2-2-2--
D--2-2-2-0-0-0-0--


Solo: ?



Outro solo parts:
Repeat 5X with slight variations 
D--------------------------------
A--------------------------------
F--------------------------------
C---12-11--14-11--12-9-11--------
G-------------------------12-9---
D--------------------------------

D-----------------------------------
A--13b14----------------------------
F-----------------------------------
C--12-----11--14-11--12-9-11--------
G----------------------------12-9---
D-----------------------------------

????????????

D-------------------------------------------------------------
A------x-x---------x-x---------x-x------x-x------x-x------x-x-
F--15b-x-x-----15b-x-x-----15b-x-x--15b-x-x--15b-x-x--15b-x-x-
C------x-x---------x-x---------x-x------x-x------x-x------x-x-
G------x-x---------x-x---------x-x------x-x------x-x------x-x-
D-------------------------------------------------------------

????????????

Play twice
D----------------------------
A----------------------------
F--2--2--1-----2-2-------1---
C--0--2--2--4--4-4--4----2---
G--0--0--2--4--2-2--4----2---
D-----------2-------2--------

D----------------------------------------
A----------------------------------------
F----------------------------------------
C--4-x-x-4-x-x-4-x-x-2h4--4-x-x-4-x-x-4--
G--4-x-x-4-x-x-4-x-x-2h4--4-x-x-4-x-x-4--
D--2-x-x-2-x-x-2-x-x-2----2-x-x-2-x-x-2--


Текст, аккорды и табулатура для песни "Let It Ride", исполняет "Big Sugar".
Используемые в песне аккорды можно найти в разделе Как брать аккорды. Аккорды для шестиструнной гитары. Другие песни можно найти на нашем сайте, воспользовавшись алфавитным указателем вверху страницы.


 
Ошибка в тексте? Выделите ошибку и нажмите Ctrl+Enter