Artist: Big Sugar
Song: Hammer in my hand
Tabber: Samuel Scheideman
Comments: 
Tuning: Drop C (Down one whole step in drop D tuning)
E-mail addy: [email protected]

Intro:??

Verse:
 1: 
D|-------------------------------------------------------|
A|-------------------------------------------------------|
F|-------------------------------------------------------|
C|-------------------------------------------------------|
G|--7-7-7--7--5-5-5--5--4-4-4--4—-2-2-2--2---------------|
C|-------------------------------------------------------|
 2: Play this twice as well after the first part. 
D|-----------------|
A|-----------------|
F|-----------------|
C|-----------------|
G|--7--5-----------|
C|--------7--5--2--|

3: Play first part again and end on this
     Got a hammer in my hand.....
D|--------------------------------------------|
A|--------------------------------------------|
F|--------------------------------------------|
C|--------------------------------------------|
G|--3--3-3-3--5--5-5-5--7--7-7-7--11-11-11-11-|
D|--------------------------------------------|

                                 |
Chorus:    end on this last part V
 Took rocks and gravel to build that wall around me... 
D|------------------|-------------------|
A|------------------|-------------------|
F|------------------|-------------------|
C|------------------|-------------------|
G|-/10--9--5-7-5-7--|-/10--9---7--5--7--|
C|------------------|-------------------|


Harmonica solo rhythm: 2 Different parts in the rhythm.
Part 1 at 1:29. Repeat 4 times
D|-----------------------|
A|-----------------------|
F|----12---11------------|
C|-----------------------|
G|-/10----9-----5h7p5h7--|
C|-----------------------|

Part 2 at 1:40 Repeat 2 times then play part one twice 
D|-----------------------|
A|-----------------------|
F|----9----8-------------|
C|-----------------------|
G|-/10----9-----5h7p5h7--|
C|-----------------------|


Guitar Solo: ??


| /  slide up
|   slide down
| h  hammer-on
| p  pull-off
| ~  vibrato
| +  harmonic
| x  Mute note


Текст, аккорды и табулатура для песни "Hammer In My Hand", исполняет "Big Sugar".
Используемые в песне аккорды можно найти в разделе Как брать аккорды. Аккорды для шестиструнной гитары. Другие песни можно найти на нашем сайте, воспользовавшись алфавитным указателем вверху страницы.


 
Ошибка в тексте? Выделите ошибку и нажмите Ctrl+Enter