Title: Loserville
Composer: Big Country
Arranger: P N Hunter
Transcriber: P N Hunter - 'Guitar Scribe' for [email protected]
Artist: Big Country
Copyright: This transcription Copyright (c) Paul Hunter, 'Guitar Scribe', 2004 [http://www.guitarscribe.com]


                     Amsus2    Am(add 9)     D5add6add9      Fma7#4


                    4/4
                     E E E E E E  E  E     E E E E E E E E   E E E E E E E E
                  E|---0-------0---------|---0-----0-----0-|---0-----0-------|
                  B|-----0--------0------|-----0-----0-----|-----0-----0-----|
                  G|-2-----2-5-------5---|-4-----4-----4---|-5-----5-----5-7-|
Electric Guitar 1 D|---------------------|-----------------|-----------------|
                  A|---------------------|-----------------|-----------------|
                  E|---------------------|-----------------|-----------------|
                   |
                   |
                   |
                   |
                   |
                   | E E E E E E  E  E     E E E E E E E E   E E E E E E E E
                  E|---------------------|-----------------|-----------------|
                  B|--------------0------|-----0-------0---|-----0-------0---|
                  G|---9---9---4-----4---|---2---2---2---0-|---5---5---5---5-|
Electric Guitar 2 D|-7---9---2-----------|-0-------0-------|-3-------3-------|
                  A|---------------------|-----------------|-----------------|
                  D|---------------------|-----------------|-----------------|


   E5                 A5  C5  G5  A5    D5                A5  C5  G5  A5



   W                  E E Q   Q   Q     E E E E E E E E   E E Q   Q   Q
E|-----------------||-----------------|-----------------|-----------------|
B|-0---------------||-----------------|-----------------|-----------------|
G|-7+--------------||-----------------|-7-7-7-7-7-7-7-7-|-----------------|
D|-----------------||-7-7-10--5---7---|-7-7-7-7-7-7-7-7-|-7-7-10--5---7---|
A|-----------------||-7-7-10--5---7---|-5-5-5-5-5-5-5-5-|-7-7-10--5---7---|
E|-----------------||-5-5-8---3---5---|-----------------|-5-5-8---3---5---|
 |
 |
 |
 |
 |
 | H..           E    E E Q   Q   Q     E E E E E E E E   E E Q   Q   Q
E|-----------------||-----------------|-----------------|-----------------|
B|-0---------------||-----------------|-----------------|-----------------|
G|-4---------------||-----------------|-----------------|-----------------|
D|-2-------------0-||-7-7-10--5---7---|-0-0-0-0-0-0-0-0-|-7-7-10--5---7---|
A|-----------------||-7-7-10--5---7---|-0-0-0-0-0-0-0-0-|-7-7-10--5---7---|
D|-----------------||-7-7-10--5---7---|-0-0-0-0-0-0-0-0-|-7-7-10--5---7---|


   D5                A5  G5  C5  G5    D5                F5



   E E E E E E E E   E E Q   Q   E E   E E E E E E E E   E  E  E  E  E  E  E  E
E|-----------------|-----------------|-----------------|------------------------
B|-----------------|-----------------|-----------------|------------------------
G|-7-7-7-7-7-7-7-7-|-----------------|-7-7-7-7-7-7-7-7-|-10-10-10-10-10-10-10-9-
D|-7-7-7-7-7-7-7-7-|-7-7-5---10--5-5-|-7-7-7-7-7-7-7-7-|-10-10-10-10-10-10-10-9-
A|-5-5-5-5-5-5-5-5-|-7-7-5---10--5-5-|-5-5-5-5-5-5-5-5-|-8--8--8--8--8--8--8--7-
E|-----------------|-5-5-3---8---3-3-|-----------------|------------------------|
 |
 |
 |
 |
 |
 | E E E E E E E E   E E Q   Q   E E   E E E E E E E E   E  E  E  E  E  E  E  E
E|-----------------|-----------------|-----------------|------------------------
B|-----------------|-----------------|-----------------|------------------------
G|-----------------|-----------------|-----------------|------------------------
D|-0-0-0-0-0-0-0-0-|-7-7-5---10--5-5-|-0-0-0-0-0-0-0-0-|-3--3--3--3--3--3--3--2-
A|-0-0-0-0-0-0-0-0-|-7-7-5---10--5-5-|-0-0-0-0-0-0-0-0-|-3--3--3--3--3--3--3--2-
D|-0-0-0-0-0-0-0-0-|-7-7-5---10--5-5-|-0-0-0-0-0-0-0-0-|-3--3--3--3--3--3--3--2-


   E5                Amsus2    Am(add 9)   D5add6add9



   W                 E E E E E E  E  E     E E E E E E E E
E|----------------||---0-------0---------|---0-----0-----0-|
B|----------------||-----0--------0------|-----0-----0-----|
G|-9--------------||-2-----2-5-------5---|-4-----4-----4---|
D|-9--------------||---------------------|-----------------|
A|-7--------------||---------------------|-----------------|
E|----------------||---------------------|-----------------|
 |
 |
 |
 |
 |
 | W                 H       H             W
E|----------------||---------------------|-0---------------|
B|----------------||-0-------0-----------|-0---------------|
G|----------------||-9-------4-----------|-2---------------|
D|----------------||-7-------2-----------|-0---------------|
A|-2--------------||---------------------|-----------------|
D|-2--------------||---------------------|-----------------|


   Amsus2    Am(add 9)   D5add6add9        Amsus2    Am(add 9)



   E E E E E E  E  E     E E E E E E E E   E E E E E E  E  E
E|---0-------0---------|---0-----0-----0-|---0-------0---------|
B|-----0--------0------|-----0-----0-----|-----0--------0------|
G|-2-----2-5-------5---|-4-----4-----4---|-2-----2-5-------5---|
D|---------------------|-----------------|---------------------|
A|---------------------|-----------------|---------------------|
E|---------------------|-----------------|---------------------|
 |
 |
 |
 |
 |
 | H       H             W                 H       H
E|-0-------0-----------|-0---------------|---------------------|
B|-0-------0-----------|-0---------------|-0-------0-----------|
G|-9-------4-----------|-2---------------|-9-------4-----------|
D|-7-------2-----------|-0---------------|-7-------2-----------|
A|---------0-----------|-----------------|---------------------|
D|---------------------|-----------------|---------------------|


   D5add6add9        Fma7#4            E5add4             Amsus2    Am(add 9)



   E E E E E E E E   E E E E E E E E   E E E E E E E E    E E E E E E  E  E
E|---0-----0-----0-|---0-------------|---0-----0-----0-||---0-------0---------|
B|-----0-----0-----|-----0-----0-0---|-----0-----0-----||-----0--------0------|
G|-4-----4-----4---|-5-----5-5-----5-|-7-----7-----7---||-2-----2-5-------5---|
D|-----------------|-----------------|-----------------||---------------------|
A|-----------------|-----------------|-----------------||---------------------|
E|-----------------|-----------------|-----------------||---------------------|
 |
 |
 |
 |
 |
 | W                 W                 W                  E E E E E E  E  E
E|-0---------------|-0---------------|-0---------------||---------------------|
B|-0---------------|-0---------------|-0---------------||--------------0------|
G|-2---------------|-5---------------|-2---------------||---9---9---4-----4---|
D|-0---------------|-3---------------|-2---------------||-7---9---2-----------|
A|-----------------|-----------------|-----------------||---------------------|
D|-----------------|-----------------|-----------------||---------------------|


   D5add6add9        Amsus2    Am(add 9)   D5add6add9



   E E E E E E E E   E E E E E E  E  E     E E E E E E E E
E|---0-----0-----0-|---0-------0---------|---0-----0-----0-|
B|-----0-----0-----|-----0--------0------|-----0-----0-----|
G|-4-----4-----4---|-2-----2-5-------5---|-4-----4-----4---|
D|-----------------|---------------------|-----------------|
A|-----------------|---------------------|-----------------|
E|-----------------|---------------------|-----------------|
 |
 |
 |
 |
 |
 | E E E E E E E E   E E E E E E  E  E     E E E E E E E E
E|-----------------|---------------------|-----------------|
B|-----0-------0---|--------------0------|-----0-------0---|
G|---2---2---2---0-|---9---9---4-----4---|---2---2---2---0-|
D|-0-------0-------|-7---9---2-----------|-0-------0-------|
A|-----------------|---------------------|-----------------|
D|-----------------|---------------------|-----------------|


   Amsus2    Am(add 9)   D5add6add9        Fma7#4            E5addb7



   E E E E E E  E  E     E E E E E E E E   E E E E E E E E   E E E E E E E E
E|---0-------0---------|---0-----0-----0-|---0-----0-----0-|---0-----0-----0-||
B|-----0--------0------|-----0-----0-----|-----0-----0-----|-----0-----0-----||
G|-2-----2-5-------5---|-4-----4-----4---|-5-----5-----5---|-7-----7-----7---||
D|---------------------|-----------------|-----------------|-----------------||
A|---------------------|-----------------|-----------------|-----------------||
E|---------------------|-----------------|-----------------|-----------------||
 |
 |
 |
 |
 |
 | E E E E E E  E  E     E E E E E E E E   E E E E E E E E   E E E E E E E E
E|---------------------|-----------------|-----------------|-----------------||
B|--------------0------|-----0-------0---|-----0-------0---|---0---0---0---0-||
G|---9---9---4-----4---|---2---2---2---0-|---5---5---5---5-|-----4-------4---||
D|-7---9---2-----------|-0-------0-------|-3-------3-------|-2-------2-------||
A|---------------------|-----------------|-----------------|-----------------||
D|---------------------|-----------------|-----------------|-----------------||


   Amsus2    Am(add 9)   D5add6add9        Amsus2    Am(add 9)



   E E E E E E  E  E     E E E E E E E E   E E E E E E  E  E
E|---0-------0---------|---0-----0-----0-|---0-------0---------|
B|-----0--------0------|-----0-----0-----|-----0--------0------|
G|-2-----2-5-------5---|-4-----4-----4---|-2-----2-5-------5---|
D|---------------------|-----------------|---------------------|
A|---------------------|-----------------|---------------------|
E|---------------------|-----------------|---------------------|
 |
 |
 |
 |
 |
 | Q   E E Q    E  E     E E E E E E E E   Q   E E Q    E  E
E|-0-------0-----------|-----------------|-0-------0-----------|
B|-0-------0-----------|---0---0---0---0-|-0-------0-----------|
G|-9-------4-------0---|-----2-------2---|-9-------4-------0---|
D|-7---7-9-2----2------|-0-------0-------|-7---7-9-2----2------|
A|---------------------|-----------------|---------------------|
D|---------------------|-----------------|---------------------|


   D5add6add9        Amsus2    Am(add 9)   D5add6add9        Fma7#4



   E E E E E E E E   E E E E E E  E  E     E E E E E E E E   E E E E E E E E
E|---0-----0-----0-|---0-------0---------|---0-----0-----0-|---0-----0-----0-|
B|-----0-----0-----|-----0--------0------|-----0-----0-----|-----0-----0-----|
G|-4-----4-----4---|-2-----2-5-------5---|-4-----4-----4---|-5-----5-----5---|
D|-----------------|---------------------|-----------------|-----------------|
A|-----------------|---------------------|-----------------|-----------------|
E|-----------------|---------------------|-----------------|-----------------|
 |
 |
 |
 |
 |
 | E E E E E E E E   Q   E E Q    E  E     E E E E E E E E   E E E E E E E E
E|-----------------|-0-------0-----------|-----------------|-----------------|
B|---0---0---0---0-|-0-------0-----------|---0---0---0---0-|-----------------|
G|-----2-------2---|-9-------4-------0---|-----2-------2---|---5---5---5---5-|
D|-0-------0-------|-7---7-9-2----2------|-0-------0-------|-3---3---3---3---|
A|-----------------|---------------------|-----------------|-----------------|
D|-----------------|---------------------|-----------------|-----------------|


   E5add4              Amsus2   Am(add 9)   D5add6add9



   E E E E E E E E    E E E E E E  E  E     E E E E E E E E
E|---0-----0-----0-||---0-------0---------|---0-----0-----0-|
B|-----0-----0-----||-----0--------0------|-----0-----0-----|
G|-7-----7-----7---||-2-----2-5-------5---|-4-----4-----4---|
D|-----------------||---------------------|-----------------|
A|-----------------||---------------------|-----------------|
E|-----------------||---------------------|-----------------|
 |
 |                    B5  C5  G5   A5
 |
 |
 |
 | E E E E E E E E    E Q Q E H    Q        E E E E E E E E
E|-----------------||---------------------|-----------------|
B|-------------0---||---0-----------------|---0---0---0---0-|
G|---4---4---4---2-||-9---12--7----9------|-----2-------2---|
D|-2---2---2-------||-7---10--5----7------|-0-------0-------|
A|-----------------||---------------------|-----------------|
D|-----------------||---------------------|-----------------|


    Amsus2   Am(add 9)   D5add6add9         Amsus2   Am(add 9)



   E E E E E E  E  E     E E E E E E E E   E E E E E E  E  E
E|---0-------0---------|---0-----0-----0-|---0-------0---------|
B|-----0--------0------|-----0-----0-----|-----0--------0------|
G|-2-----2-5-------5---|-4-----4-----4---|-2-----2-5-------5---|
D|---------------------|-----------------|---------------------|
A|---------------------|-----------------|---------------------|
E|---------------------|-----------------|---------------------|
 |
 | B5  C5  G5   A5                         B5  C5  G5   A5
 |
 |
 |
 | Q   Q   Q    Q        E E E E E E E E   Q   Q   Q    Q
E|---------------------|-----------------|---------------------|
B|---------------------|---0---0---0---0-|---------------------|
G|-9---12--7----9------|-----2-------2---|-9---12--7----9------|
D|-7---10--5----7------|-0-------0-------|-7---10--5----7------|
A|---------------------|-----------------|---------------------|
D|---------------------|-----------------|---------------------|


   D5add6add9        Fma7#4            E5add4             A5  C5  G5  A5



   E E E E E E E E   E E E E E E E E   E E E E E E E E    Q   Q   E E E E
E|---0-----0-----0-|---0-----0-----0-|---0-----0-------||-----------------|
B|-----0-----0-----|-----0-----0-----|-----0-----0---0-||-----------------|
G|-4-----4-----4---|-5-----5-----5---|-7-----7-----7---||-----------------|
D|-----------------|-----------------|-----------------||-7---10--5-7-7---|
A|-----------------|-----------------|-----------------||-7---10--5-7-7---|
E|-----------------|-----------------|-----------------||-5---8---3-5-5-0-|
 |
 |
 |
 |
 |
 | E E E E E E E E   E E E E E E E E   H       E E Q      Q   Q   E E Q
E|-----------------|-----------------|-----------------||-----------------|
B|---0---0---0---0-|-----0-------0---|-0+------0-0-0---||-----------------|
G|-----2-------2---|---5---5---5---5-|-4+------4-4-4---||-----------------|
D|-0-------0-------|-3-------3-------|-2+------2-2-2---||-7---10--5-7-7---|
A|-----------------|-----------------|-----------------||-7---10--5-7-7---|
D|-----------------|-----------------|-----------------||-7---10--5-7-7---|


   D5                A5  C5  G5  A5    D5                A5  G5  C5  G5



   E E E E E E E E   Q   Q   E E E E   E E E E E E E E   Q   Q   Q   E E
E|-----------------|-----------------|-----------------|-----------------|
B|-----------------|-----------------|-----------------|-----------------|
G|-7-7-7-7-7-7-7-7-|-----------------|-7-7-7-7-7-7-7-7-|-----------------|
D|-7-7-7-7-7-7-7-7-|-7---10--5-7-7---|-7-7-7-7-7-7-7-7-|-7---5---10--5---|
A|-5-5-5-5-5-5-5-5-|-7---10--5-7-7---|-5-5-5-5-5-5-5-5-|-7---5---10--5---|
E|-----------------|-5---8---3-5-5-0-|-----------------|-5---3---8---3-0-|
 |
 |
 |
 |
 |
 | E E E E E E E E   E E Q   Q   Q     E E E E E E E E   E E Q   Q   E E
E|-----------------|-----------------|-----------------|-----------------|
B|-----------------|-----------------|-----------------|-----------------|
G|-----------------|-----------------|-----------------|-----------------|
D|-0-0-0-0-0-0-0-0-|-7-7-10--5---7---|-0-0-0-0-0-0-0-0-|-7-7-5---10--5-5-|
A|-0-0-0-0-0-0-0-0-|-7-7-10--5---7---|-0-0-0-0-0-0-0-0-|-7-7-5---10--5-5-|
D|-0-0-0-0-0-0-0-0-|-7-7-10--5---7---|-0-0-0-0-0-0-0-0-|-7-7-5---10--5-5-|


   D5                F5                        E5



   E E E E E E E E   E  E  E  E   E  E  E  E   E E E E  E E E E
E|-----------------|-------------------------|------------------||
B|-----------------|-------------------------|------------------||
G|-7-7-7-7-7-7-7-7-|-10----10--------10-10-9-|-9---9------9-9---||
D|-7-7-7-7-7-7-7-7-|----10----10+-10----10-9-|---9---9+-9---9---||
A|-5-5-5-5-5-5-5-5-|--------------------8--7-|--------------7---||
E|-----------------|-------------------------|------------------||
 |
 |
 |
 |
 |
 | E E E E E E E E   E  E  E  E   E  E  E  E   E E E E  E E Q
E|-----------------|-------------------------|------------------||
B|-----------------|-------------------------|------------------||
G|-----------------|-------------------------|------------------||
D|-0-0-0-0-0-0-0-0-|-3--3--3--3---3--3--3--2-|------------------||
A|-0-0-0-0-0-0-0-0-|-3--3--3--3---3--3--3--2-|-2-2-2-2--2-2-2---||
D|-0-0-0-0-0-0-0-0-|-3--3--3--3---3--3--3--2-|-2-2-2-2--2-2-2---||


   Dm  Em  F   G     G                   Dm  Em  F   G     G



   Q   Q   Q   Q     Q. E. E E Q E Q E   Q   Q   Q   Q     Q. E. E E Q E Q E
E|-1---3---5---7---|-8--7+-7-7+7-7-----|-5---7---8---7---|-8--7+-7-7+7-7-----|
B|-3---5---6---8---|-8-------8+8---8---|-6---8---10--8---|-8-------8+8---8---|
G|-2---4---5---7---|-7-------7+7-----7-|-7---9---10--7---|-7-------7+7-----7-|
D|-----------------|-------------------|-----------------|-------------------|
A|-----------------|-------------------|-----------------|-------------------|
E|-----------------|-------------------|-----------------|-------------------|
 |
 | D5      F         G5                  D5      F         G5
 |
 |
 |
 | Q   E E Q   E E   Q.      E E E E E   Q   E E Q   E E   Q.      E E E E E
E|-----------------|-------------------|-----------------|-------------------|
B|-3---3-0-1---1-0-|-3-------3+3-3-3-0-|-3---3-0-1---1-0-|-3-------3+3-3-3-0-|
G|-2---2-0-2---2-0-|-0-------0+0-0-0-0-|-2---2-0-2---2-0-|-0-------0+0-0-0-0-|
D|-0---------------|-------------------|-0---------------|-------------------|
A|-----------------|-------------------|-----------------|-------------------|
D|-----------------|-------------------|-----------------|-------------------|


   Dm  Em  F   G     G                   Bb5               A5


                                     |3|
   Q   Q   Q   Q     Q. E. E E Q E Q SE  H.          E E   W
E|-5---7---8---7---|-8--7+-7-7+7-7-----|-----------------|-----------------||
B|-6---8---10--8---|-8-------8+8---8---|-----------------|-----------------||
G|-7---9---10--7---|-7-------7+7-------|-----------------|-----------------||
D|-----------------|------------------8|-8+----------8-7-|-7---------------||
A|-----------------|------------------8|-8+----------8-7-|-7---------------||
E|-----------------|------------------6|-6+----------6-5-|-5---------------||
 |
 | D5      F         G5
 |
 |
 |
 | Q   E E Q   E E   Q.      E E E E E   E E E E E E E E   E E E E E E E E
E|-----------------|-------------------|-----------------|-----------------||
B|-3---3-0-1---1-0-|-3-------3+3-3-3-0-|-----------------|-----------------||
G|-2---2-0-2---2-0-|-0-------0+0-0-0-0-|-----3-------3---|-----0-------0---||
D|-0---------------|-------------------|---3---3---3---3-|---2---2---2---0-||
A|-----------------|-------------------|-1-------1-------|-0-------0-------||
D|-----------------|-------------------|-----------------|-----------------||


   Dm  Em  F   G     G                   Dm  Em  F   G     G



   Q   Q   Q   Q     Q. E. E E Q E Q E   Q   Q   Q   Q     Q. E. E E Q E Q E
E|-1---3---5---7---|-8--7+-7-7+7-7-----|-5---7---8---7---|-8--7+-7-7+7-7-----|
B|-3---5---6---8---|-8-------8+8---8---|-6---8---10--8---|-8-------8+8---8---|
G|-2---4---5---7---|-7-------7+7-----7-|-7---9---10--7---|-7-------7+7-----7-|
D|-----------------|-------------------|-----------------|-------------------|
A|-----------------|-------------------|-----------------|-------------------|
E|-----------------|-------------------|-----------------|-------------------|
 |
 | D5      F         G5                  D5      F         G5
 |
 |
 |
 | Q   E E Q   E E   Q.      E E E E E   Q   E E Q   E E   Q.      E E E E E
E|-----------------|-------------------|-----------------|-------------------|
B|-3---3-0-1---1-0-|-3-------3+3-3-3-0-|-3---3-0-1---1-0-|-3-------3+3-3-3-0-|
G|-2---2-0-2---2-0-|-0-------0+0-0-0-0-|-2---2-0-2---2-0-|-0-------0+0-0-0-0-|
D|-0---------------|-------------------|-0---------------|-------------------|
A|-----------------|-------------------|-----------------|-------------------|
D|-----------------|-------------------|-----------------|-------------------|


   Dm  Em  F   G     G                    F5                 E5


                                     |3-|
   Q   Q   Q   Q     Q. E. E E E E E EE   Q.    E  Q.    E   E E E E E E Q
E|-5---7---8---7---|-8--7+-7-7+7-7-7----|------------------|-----------------||
B|-6---8---10--8---|-8-------8+8-8-8----|------------------|-----------------||
G|-7---9---10--7---|-7-------7+7-7-7--10|-10----10-10------|-9-9-9-9+9-9-9---||
D|-----------------|------------------10|-10----10-10------|-9-9-9-9+9-9-9---||
A|-----------------|------------------8-|-8-----8--8-----0-|-7-7-7-7+7-7-7---||
E|-----------------|--------------------|------------------|-----------------||
 |
 | D5      F         G5                   F5add#4            E5add#4
 |
 |
 |
 | Q   E E Q   E E   Q.      E E E E E    E E E E  E E E E   E E E E E E E E
E|-----------------|--------------------|------------------|-----------------||
B|-3---3-0-1---1-0-|-3-------3+3-3-3-0--|-----0--------0---|---0---0-----0---||
G|-2---2-0-2---2-0-|-0-------0+0-0-0-0--|---5---5----5---5-|-----3-----4---0-||
D|-0---------------|--------------------|-3--------3-------|-2-------2-------||
A|-----------------|--------------------|------------------|-----------------||
D|-----------------|--------------------|------------------|-----------------||


   A5  C5  G5  A5    D5                A5  C5  G5  A5    D5



   Q   Q   E E E E   E E E E E E E E   Q   Q   E E E E   E E E E E E E E
E|-----------------|-----------------|-----------------|-----------------|
B|-----------------|-----------------|-----------------|-----------------|
G|-----------------|-7-7-7-7-7-7-7-7-|-----------------|-7-7-7-7-7-7-7-7-|
D|-7---10--5-5-7-0-|-7-7-7-7-7-7-7-7-|-7---10--5-5-7-0-|-7-7-7-7-7-7-7-7-|
A|-7---10--5-5-7-0-|-5-5-5-5-5-5-5-5-|-7---10--5-5-7-0-|-5-5-5-5-5-5-5-5-|
E|-5---8---3-3-5---|-----------------|-5---8---3-3-5---|-----------------|
 |
 |
 |
 |
 |
 | E E Q   Q   Q     E E E E E E E E   E E Q   Q   Q     E E E E E E E E
E|-----------------|-----------------|-----------------|-----------------|
B|-----------------|-----------------|-----------------|-----------------|
G|-----------------|-----------------|-----------------|-----------------|
D|-7-7-10--5---7---|-0-0-0-0-0-0-0-0-|-7-7-10--5---7---|-0-0-0-0-0-0-0-0-|
A|-7-7-10--5---7---|-0-0-0-0-0-0-0-0-|-7-7-10--5---7---|-0-0-0-0-0-0-0-0-|
D|-7-7-10--5---7---|-0-0-0-0-0-0-0-0-|-7-7-10--5---7---|-0-0-0-0-0-0-0-0-|


   A5  C5  G5  A5    D5                F5          F



   Q   Q   E E E E   E E E E E E E E   E  E  E  E  E  E  E  E
E|-----------------|-----------------|------------------------|
B|-----------------|-----------------|-------------10-10-10---|
G|-----------------|-7-7-7-7-7-7-7-7-|-10-10-10-10-10-10-10-9-|
D|-7---10--5-5-7-0-|-7-7-7-7-7-7-7-7-|-10-10-10-10-10-10-10-9-|
A|-7---10--5-5-7-0-|-5-5-5-5-5-5-5-5-|-8--8--8--8--8--8--8--7-|
E|-5---8---3-3-5---|-----------------|------------------------|
 |
 |
 |
 |
 |
 | E E Q   Q   Q     E E E E E E E E   E  E  E  E  E  E  E  E
E|-----------------|-----------------|------------------------|
B|-----------------|-----------------|------------------------|
G|-----------------|-----------------|------------------------|
D|-7-7-10--5---7---|-0-0-0-0-0-0-0-0-|-3--3--3--3--3--3--3--2-|
A|-7-7-10--5---7---|-0-0-0-0-0-0-0-0-|-3--3--3--3--3--3--3--2-|
D|-7-7-10--5---7---|-0-0-0-0-0-0-0-0-|-3--3--3--3--3--3--3--2-|


   E5                 A5  G5  C5  G5    D5                A5  G5  C5  G5



   E E E E  E E E E   Q   Q   Q   Q     E E E E E E E E   Q   Q   Q   Q
E|------------------|-----------------|-----------------|-----------------|
B|------------------|-----------------|-----------------|-----------------|
G|-9---9------9-9---|-----------------|-7-7-7-7-7-7-7-7-|-----------------|
D|---9---9+-9---9---|-7---5---10--5---|-7-7-7-7-7-7-7-7-|-7---5---10--5---|
A|--------------7---|-7---5---10--5---|-5-5-5-5-5-5-5-5-|-7---5---10--5---|
E|------------------|-5---3---8---3---|-----------------|-5---3---8---3---|
 |
 |
 |
 |
 |
 | E E E E  E E Q     E E Q   Q   Q     E E E E E E E E   E E Q   Q   Q
E|------------------|-----------------|-----------------|-----------------|
B|------------------|-----------------|-----------------|-----------------|
G|------------------|-----------------|-----------------|-----------------|
D|------------------|-7-7-5---10--5---|-0-0-0-0-0-0-0-0-|-7-7-5---10--5---|
A|-2-2-2-2--2-2-2---|-7-7-5---10--5---|-0-0-0-0-0-0-0-0-|-7-7-5---10--5---|
D|-2-2-2-2--2-2-2---|-7-7-5---10--5---|-0-0-0-0-0-0-0-0-|-7-7-5---10--5---|


   D5                A5  G5  C5  G5    D5                F5          F



   E E E E E E E E   E E Q   Q   Q     E E E E E E E E   E  E  E  E  E  E  E  E
E|-----------------|-----------------|-----------------|------------------------
B|-----------------|-----------------|-----------------|-------------10-10-10---
G|-7-7-7-7-7-7-7-7-|-----------------|-7-7-7-7-7-7-7-7-|-10-10-10-10-10-10-10-9-
D|-7-7-7-7-7-7-7-7-|-7-7-5---10--5---|-7-7-7-7-7-7-7-7-|-10-10-10-10-10-10-10-9-
A|-5-5-5-5-5-5-5-5-|-7-7-5---10--5---|-5-5-5-5-5-5-5-5-|-8--8--8--8--8--8--8--7-
E|-----------------|-5-5-3---8---3---|-----------------|------------------------|
 |
 |
 |
 |
 |
 | E E E E E E E E   E E Q   Q   Q     E E E E E E E E   E  E  E  E  E  E  E  E
E|-----------------|-----------------|-----------------|------------------------
B|-----------------|-----------------|-----------------|------------------------
G|-----------------|-----------------|-----------------|------------------------
D|-0-0-0-0-0-0-0-0-|-7-7-5---10--5---|-0-0-0-0-0-0-0-0-|-3--3--3--3--3--3--3--2-
A|-0-0-0-0-0-0-0-0-|-7-7-5---10--5---|-0-0-0-0-0-0-0-0-|-3--3--3--3--3--3--3--2-
D|-0-0-0-0-0-0-0-0-|-7-7-5---10--5---|-0-0-0-0-0-0-0-0-|-3--3--3--3--3--3--3--2-|


   E5                 Am                  Amadd4             G



   E E E E E E E E    H..             E   W                  H.            E E
E|-----------------||-0---------------0-|-0----------------|-------------------|
B|-------------0-1-||-1---------------0-|-0----------------|-0-------------3-1-|
G|-9-9-9-9-9-9-0-2-||-2---------------2-|-2----------------|-0-------------4-2-|
D|-9-9-9-9-9-9-0---||-2---------------2-|-2----------------|-0-------------5-3-|
A|-7-7-7-7-7-7-----||-------------------|------------------|---------------5-3-|
E|-----------------||-------------------|------------------|-------------------|
 |
 |
 |
 |
 |
 | E E E E E E Q      E   E E E E E E E   E E E E  E E E E   E  E E  E E E E E
E|-----------------||-10--8-7---7-8-7---|-----7--------7-8-|-10-8-10-7---7-8---|
B|-----------------||---------10------10|-8-10--10-8-10----|-----------10----10|
G|-----------------||-------------------|------------------|-------------------|
D|-------------0---||-------------------|------------------|-------------------|
A|-2-2-2-2-2-2-0---||-------------------|------------------|-------------------|
D|-2-2-2-2-2-2-0---||-------------------|------------------|-------------------|


   F                   Am



   W                   Q   E E E E E E   E E E E E E E E   E E E E E E E E
E|-1----------------||-----------0-----|---0-----0-----0-|---0-------0-----|
B|-1----------------||-----1---1---0-1-|-0---0-1---0-0---|-1---1-0-1-------|
G|-2----------------||-2-----2---------|-----------------|-------------4-5-|
D|-3----------------||-----------------|-----------------|-----------------|
A|------------------||-----------------|-----------------|-----------------|
E|------------------||-----------------|-----------------|-----------------|
 |
 |
 |
 |
 |
 | E  E E E E E E E
E|------7-8-7---7-8-||-----------------|-----------------|-----------------|
B|-10-8-------10----||-----------------|-----------------|-----------------|
G|------------------||-----------------|-----------------|-----------------|
D|------------------||-----------------|-----------------|-----------------|
A|------------------||-----------------|-----------------|-----------------|
D|------------------||-----------------|-----------------|-----------------|


                     Am                                  F



   E E E E E E E E   E E E E E E E E   E E E E E E E E   E E E E E E E E
E|---0-----0-----0-|---0-------0-----|---0-----0-----0-|---0-----0-------|
B|-----0-----0-----|-----0-------0---|-----0-----0-----|-----0-------0---|
G|-4-----4-----4---|-4-----4-5-----5-|-4-----4-----4---|-5-----5---4---5-|
D|-----------------|-----------------|-----------------|-----------------|
A|-----------------|-----------------|-----------------|-----------------|
E|-----------------|-----------------|-----------------|-----------------|
 |
 |
 |
 |
 |
 |
E|-----------------|-----------------|-----------------|-----------------|
B|-----------------|-----------------|-----------------|-----------------|
G|-----------------|-----------------|-----------------|-----------------|
D|-----------------|-----------------|-----------------|-----------------|
A|-----------------|-----------------|-----------------|-----------------|
D|-----------------|-----------------|-----------------|-----------------|


   E                 Am                D                  Am



   E E E E E E E E   Q   E E E E E E   Q   E E  Q   E E   Q   E E E E E E
E|---------0-------|-----------------|-2---2-2--2---2-0-|-----------------|
B|---0-0-----0-----|-----------------|-3---3-3--3---3-0-|-----------------|
G|-7---7-7-----7-7-|-2---2---0---0---|-2---2-2--2---2-0-|-2---2---0---0---|
D|-----------------|-2---2-0---2---2-|------------------|-2---2-0---2---2-|
A|-----------------|-----------------|------------------|-----------------|
E|-----------------|-----------------|------------------|-----------------|
 |
 |
 |
 |
 |
 |                   Q   Q   Q   E E   Q   E E  E E E E   Q   Q   Q   E E
E|-----------------|-----------------|------------------|-----------------|
B|-----------------|---------0---0---|-3---3------------|---------0---0---|
G|-----------------|-9---9---0---0-0-|-2---2-2+-2-2-2-0-|-9---9---0---0-0-|
D|-----------------|-7---7---------0-|-0---0-0+-0-0-0-0-|-7---7---------0-|
A|-----------------|-0---0-----------|------------------|-0---0-----------|
D|-----------------|-----------------|------------------|-----------------|


   D                 Am                D



   E E E E Q   E E   Q   E E E E E E   E E E E  Q   E E
E|-2-2-2-2+2---2-0-|-----------------|-2-2-2-2+-2---2-0-|-----------------|
B|-3-3-3-3+3---3-0-|-----------------|-3-3-3-3+-3---3-0-|-----------------|
G|-2-2-2-2+2---2-0-|-2---2---0---0---|-2-2-2-2+-2---2-0-|-----------------|
D|-----------------|-2---2-0---2---2-|------------------|-----------------|
A|-----------------|-----------------|------------------|-----------------|
E|-----------------|-----------------|------------------|-----------------|
 |
 |
 |
 |
 |
 | Q   E E E E E E   Q   Q   Q   E E   E E E E  Q   E E
E|-----------------|-----------------|------------------|-----------------|
B|-3---3-----------|---------0-------|-3-3-3-3--3---3---|-----------------|
G|-2---2-2+2-2-2-0-|-9---9---0-----0-|-2-2-2-2--2---2-0-|-----------------|
D|-0---0-0+0-0-0-0-|-7---7---2---2---|-0-0-0-0--0---0-0-|-----------------|
A|-----------------|-0---0-----------|------------------|-----------------|
D|-----------------|-----------------|------------------|-----------------|


   E                  A5  C5  G5  A5    D5                A5  C5  G5  A5



   Q   E E E E E E    Q   Q   E E E E   E E E E E E E E   Q   Q   E E E E
E|-4---4-4-4---0---||-----------------|-----------------|-----------------|
B|-5---5-5---5-0---||-----------------|-----------------|-----------------|
G|-4---4-4-------2-||-----------------|-7-7-7-7-7-7-7-7-|-----------------|
D|-----------------||-7---10--5-5-7-0-|-7-7-7-7-7-7-7-7-|-7---10--5-5-7-0-|
A|-----------------||-7---10--5-5-7-0-|-5-5-5-5-5-5-5-5-|-7---10--5-5-7-0-|
E|-----------------||-5---8---3-3-5---|-----------------|-5---8---3-3-5---|
 |
 |
 |
 |
 |
 | E E E E H          E E Q   Q   Q     E E E E E E E E   E E Q   Q   Q
E|-----------------||-----------------|-----------------|-----------------|
B|-----------------||-----------------|-----------------|-----------------|
G|-----------------||-----------------|-----------------|-----------------|
D|-2-2-2-2-2-------||-7-7-10--5---7---|-0-0-0-0-0-0-0-0-|-7-7-10--5---7---|
A|-2-2-2-2-2-------||-7-7-10--5---7---|-0-0-0-0-0-0-0-0-|-7-7-10--5---7---|
D|-2-2-2-2-2-------||-7-7-10--5---7---|-0-0-0-0-0-0-0-0-|-7-7-10--5---7---|


   D5                A5  C5  G5  A5    D5                F5          F



   E E E E E E E E   Q   Q   E E E E   E E E E E E E E   E  E  E  E  E  E  E  E
E|-----------------|-----------------|-----------------|------------------------
B|-----------------|-----------------|-----------------|-------------10-10-10---
G|-7-7-7-7-7-7-7-7-|-----------------|-7-7-7-7-7-7-7-7-|-10-10-10-10-10-10-10-9-
D|-7-7-7-7-7-7-7-7-|-7---10--5-5-7-0-|-7-7-7-7-7-7-7-7-|-10-10-10-10-10-10-10-9-
A|-5-5-5-5-5-5-5-5-|-7---10--5-5-7-0-|-5-5-5-5-5-5-5-5-|-8--8--8--8--8--8--8--7-
E|-----------------|-5---8---3-3-5---|-----------------|------------------------|
 |
 |
 |
 |
 |
 | E E E E E E E E   E E Q   Q   Q     E E E E E E E E   E  E  E  E  E  E  E  E
E|-----------------|-----------------|-----------------|------------------------
B|-----------------|-----------------|-----------------|------------------------
G|-----------------|-----------------|-----------------|------------------------
D|-0-0-0-0-0-0-0-0-|-7-7-10--5---7---|-0-0-0-0-0-0-0-0-|-3--3--3--3--3--3--3--2-
A|-0-0-0-0-0-0-0-0-|-7-7-10--5---7---|-0-0-0-0-0-0-0-0-|-3--3--3--3--3--3--3--2-
D|-0-0-0-0-0-0-0-0-|-7-7-10--5---7---|-0-0-0-0-0-0-0-0-|-3--3--3--3--3--3--3--2-|


   E5                 A5  G5  C5  G5    D5                A5  G5  C5  G5



   E E E E  E E E E   Q   Q   Q   Q     E E E E E E E E   Q   Q   Q   Q
E|------------------|-----------------|-----------------|-----------------|
B|------------------|-----------------|-----------------|-----------------|
G|-9---9------9-9---|-----------------|-7-7-7-7-7-7-7-7-|-----------------|
D|---9---9+-9---9---|-7---5---10--5---|-7-7-7-7-7-7-7-7-|-7---5---10--5---|
A|--------------7---|-7---5---10--5---|-5-5-5-5-5-5-5-5-|-7---5---10--5---|
E|------------------|-5---3---8---3---|-----------------|-5---3---8---3---|
 |
 |
 |
 |
 |
 | E E E E  E E Q     E E Q   Q   Q     E E E E E E E E   E E Q   Q   Q
E|------------------|-----------------|-----------------|-----------------|
B|------------------|-----------------|-----------------|-----------------|
G|------------------|-----------------|-----------------|-----------------|
D|------------------|-7-7-5---10--5---|-0-0-0-0-0-0-0-0-|-7-7-5---10--5---|
A|-2-2-2-2--2-2-2---|-7-7-5---10--5---|-0-0-0-0-0-0-0-0-|-7-7-5---10--5---|
D|-2-2-2-2--2-2-2---|-7-7-5---10--5---|-0-0-0-0-0-0-0-0-|-7-7-5---10--5---|


   D5                A5  G5  C5  G5    D5                F5          F



   E E E E E E E E   E E Q   Q   Q     E E E E E E E E   E  E  E  E  E  E  E  E
E|-----------------|-----------------|-----------------|------------------------
B|-----------------|-----------------|-----------------|-------------10-10-10---
G|-7-7-7-7-7-7-7-7-|-----------------|-7-7-7-7-7-7-7-7-|-10-10-10-10-10-10-10-9-
D|-7-7-7-7-7-7-7-7-|-7-7-5---10--5---|-7-7-7-7-7-7-7-7-|-10-10-10-10-10-10-10-9-
A|-5-5-5-5-5-5-5-5-|-7-7-5---10--5---|-5-5-5-5-5-5-5-5-|-8--8--8--8--8--8--8--7-
E|-----------------|-5-5-3---8---3---|-----------------|------------------------|
 |
 |
 |
 |
 |
 | E E E E E E E E   E E Q   Q   Q     E E E E E E E E   E  E  E  E  E  E  E  E
E|-----------------|-----------------|-----------------|------------------------
B|-----------------|-----------------|-----------------|------------------------
G|-----------------|-----------------|-----------------|------------------------
D|-0-0-0-0-0-0-0-0-|-7-7-5---10--5---|-0-0-0-0-0-0-0-0-|-3--3--3--3--3--3--3--2-
A|-0-0-0-0-0-0-0-0-|-7-7-5---10--5---|-0-0-0-0-0-0-0-0-|-3--3--3--3--3--3--3--2-
D|-0-0-0-0-0-0-0-0-|-7-7-5---10--5---|-0-0-0-0-0-0-0-0-|-3--3--3--3--3--3--3--2-|


   E5                A5



   E E E E E E E E   W                 W                 W
E|-----------------|-----------------|-----------------|----------------||
B|-------------0-1-|-----------------|-----------------|----------------||
G|-9-9-9-9-9-9-0-2-|-2+--------------|-2+--------------|-2--------------||
D|-9-9-9-9-9-9-0---|-2+--------------|-2+--------------|-2--------------||
A|-7-7-7-7-7-7-----|-0+--------------|-0+--------------|-0--------------||
E|-----------------|-----------------|-----------------|----------------||
 |
 |
 |
 |
 |
 | E E E E E E Q     W                 W                 W
E|-----------------|-----------------|-----------------|----------------||
B|-----------------|-----------------|-----------------|----------------||
G|-----------------|-2+--------------|-2+--------------|-2--------------||
D|-------------0---|-2+--------------|-2+--------------|-2--------------||
A|-2-2-2-2-2-2-0---|-0+--------------|-0+--------------|-0--------------||
D|-2-2-2-2-2-2-0---|-----------------|-----------------|----------------||


   A5  C5  G5  A5    D5                A5  C5  G5  A5    D5



   Q   Q   E E E E   E E E E E E E E   Q   Q   E E E E   E E E E E E E E
E|-----------------|-----------------|-----------------|-----------------|
B|-----------------|-----------------|-----------------|-----------------|
G|-----------------|-7-7-7-7-7-7-7-7-|-----------------|-7-7-7-7-7-7-7-7-|
D|-7---10--5-5-7-0-|-7-7-7-7-7-7-7-7-|-7---10--5-5-7-0-|-7-7-7-7-7-7-7-7-|
A|-7---10--5-5-7-0-|-5-5-5-5-5-5-5-5-|-7---10--5-5-7-0-|-5-5-5-5-5-5-5-5-|
E|-5---8---3-3-5---|-----------------|-5---8---3-3-5---|-----------------|
 |
 |
 |
 |
 |
 | E E Q   Q   Q     E E E E E E E E   E E Q   Q   Q     E E E E E E E E
E|-----------------|-----------------|-----------------|-----------------|
B|-----------------|-----------------|-----------------|-----------------|
G|-----------------|-----------------|-----------------|-----------------|
D|-7-7-10--5---7---|-0-0-0-0-0-0-0-0-|-7-7-10--5---7---|-0-0-0-0-0-0-0-0-|
A|-7-7-10--5---7---|-0-0-0-0-0-0-0-0-|-7-7-10--5---7---|-0-0-0-0-0-0-0-0-|
D|-7-7-10--5---7---|-0-0-0-0-0-0-0-0-|-7-7-10--5---7---|-0-0-0-0-0-0-0-0-|


   A5  C5  G5  A5    D5                F5          F            E5



   Q   Q   E E E E   E E E E E E E E   E  E  E  E  E  E  E  E   E E E E E E Q
E|-----------------|-----------------|------------------------|----------------|
B|-----------------|-----------------|-------------10-10-10---|----------------|
G|-----------------|-7-7-7-7-7-7-7-7-|-10-10-10-10-10-10-10-9-|-9-9-9-9-9-9-9--|
D|-7---10--5-5-7-0-|-7-7-7-7-7-7-7-7-|-10-10-10-10-10-10-10-9-|-9-9-9-9-9-9-9--|
A|-7---10--5-5-7-0-|-5-5-5-5-5-5-5-5-|-8--8--8--8--8--8--8--7-|-7-7-7-7-7-7-7--|
E|-5---8---3-3-5---|-----------------|------------------------|----------------||
 |
 |
 |
 |
 |
 | E E Q   Q   Q     E E E E E E E E   E  E  E  E  E  E  E  E   E E E E E E Q
E|-----------------|-----------------|------------------------|----------------|
B|-----------------|-----------------|------------------------|----------------|
G|-----------------|-----------------|------------------------|----------------|
D|-7-7-10--5---7---|-0-0-0-0-0-0-0-0-|-3--3--3--3--3--3--3--2-|----------------|
A|-7-7-10--5---7---|-0-0-0-0-0-0-0-0-|-3--3--3--3--3--3--3--2-|-2-2-2-2-2-2-2--|
D|-7-7-10--5---7---|-0-0-0-0-0-0-0-0-|-3--3--3--3--3--3--3--2-|-2-2-2-2-2-2-2--||


   A5  C5  G5  A5    D5                A5  C5  G5  A5    D5



   Q   Q   E E E E   E E E E E E E E   Q   Q   E E E E   E E E E E E E E
E|-----------------|-----------------|-----------------|-----------------|
B|-----------------|-----------------|-----------------|-----------------|
G|-----------------|-7-7-7-7-7-7-7-7-|-----------------|-7-7-7-7-7-7-7-7-|
D|-7---10--5-5-7-0-|-7-7-7-7-7-7-7-7-|-7---10--5-5-7-0-|-7-7-7-7-7-7-7-7-|
A|-7---10--5-5-7-0-|-5-5-5-5-5-5-5-5-|-7---10--5-5-7-0-|-5-5-5-5-5-5-5-5-|
E|-5---8---3-3-5---|-----------------|-5---8---3-3-5---|-----------------|
 |
 |
 |
 |
 |
 | E E Q   Q   Q     E E E E E E E E   E E Q   Q   Q     E E E E E E E E
E|-----------------|-----------------|-----------------|-----------------|
B|-----------------|-----------------|-----------------|-----------------|
G|-----------------|-----------------|-----------------|-----------------|
D|-7-7-10--5---7---|-0-0-0-0-0-0-0-0-|-7-7-10--5---7---|-0-0-0-0-0-0-0-0-|
A|-7-7-10--5---7---|-0-0-0-0-0-0-0-0-|-7-7-10--5---7---|-0-0-0-0-0-0-0-0-|
D|-7-7-10--5---7---|-0-0-0-0-0-0-0-0-|-7-7-10--5---7---|-0-0-0-0-0-0-0-0-|


   A5  C5  G5  A5    D5                F5          F            E5



   Q   Q   E E E E   E E E E E E E E   E  E  E  E  E  E  E  E   E E E E E E Q
E|-----------------|-----------------|------------------------|-----------------
B|-----------------|-----------------|-------------10-10-10---|-----------------
G|-----------------|-7-7-7-7-7-7-7-7-|-10-10-10-10-10-10-10-9-|-9-9-9-9-9-9-9---
D|-7---10--5-5-7-0-|-7-7-7-7-7-7-7-7-|-10-10-10-10-10-10-10-9-|-9-9-9-9-9-9-9---
A|-7---10--5-5-7-0-|-5-5-5-5-5-5-5-5-|-8--8--8--8--8--8--8--7-|-7-7-7-7-7-7-7---
E|-5---8---3-3-5---|-----------------|------------------------|-----------------|
 |
 |
 |
 |
 |
 | E E Q   Q   Q     E E E E E E E E   E  E  E  E  E  E  E  E   E E E E E E Q
E|-----------------|-----------------|------------------------|-----------------
B|-----------------|-----------------|------------------------|-----------------
G|-----------------|-----------------|------------------------|-----------------
D|-7-7-10--5---7---|-0-0-0-0-0-0-0-0-|-3--3--3--3--3--3--3--2-|-----------------
A|-7-7-10--5---7---|-0-0-0-0-0-0-0-0-|-3--3--3--3--3--3--3--2-|-2-2-2-2-2-2-2---
D|-7-7-10--5---7---|-0-0-0-0-0-0-0-0-|-3--3--3--3--3--3--3--2-|-2-2-2-2-2-2-2---|


   A5  C5  G5  A5    D5



   Q   Q   E E E E   E E E E E E E E
E|-----------------|-----------------|
B|-----------------|-----------------|
G|-----------------|-7-7-7-7-7-7-7-7-|
D|-7---10--5-5-7-0-|-7-7-7-7-7-7-7-7-|
A|-7---10--5-5-7-0-|-5-5-5-5-5-5-5-5-|
E|-5---8---3-3-5---|-----------------|
 |
 |
 |
 |
 |
 | E E Q   Q   Q     E E E E E E E E
E|-----------------|-----------------|
B|-----------------|-----------------|
G|-----------------|-----------------|
D|-7-7-10--5---7---|-0-0-0-0-0-0-0-0-|
A|-7-7-10--5---7---|-0-0-0-0-0-0-0-0-|
D|-7-7-10--5---7---|-0-0-0-0-0-0-0-0-|




What do all the symbols mean?
-----------------------------

W - whole note (semibreve)
H - half note (minim)
Q - quarter note (crotchet)
E - 8th note (quaver)
S - 16th note (semiquaver)
T - 32nd note (demisemi quaver)
X - 64th note (hemidemisemi quaver)
? - Fret number not defined (note out of range)

If a dot appears after one of the above then it means that the note is 1.5
times as long, e.g. Q. is 3 8th notes long. Two dots means 1.75 times long.

If a '+' sign appears after a note then that note is tied to (held on to) the
next note.

 ______
|1.    | - play bar/s under this sign first time only in repeats

|2.    | - play bar/s under this sign second time only in repeats

|1.3.  | - play bar/s under this sign first and third time only in repeats

||
||*
||*      - Repeat back to this sign
||

 ||
*||
*||      - Repeat from this sign
 ||


|-3-|    - Triplet

___________________________________________________________
Created using Sibelius 3 - http://www.sibelius.com/


Текст, аккорды и табулатура для песни "Loserville", исполняет "Big Country".
Используемые в песне аккорды можно найти в разделе Как брать аккорды. Аккорды для шестиструнной гитары. Другие песни можно найти на нашем сайте, воспользовавшись алфавитным указателем вверху страницы.


 
Ошибка в тексте? Выделите ошибку и нажмите Ctrl+Enter