---------------------------------------------------------------------
		     Biffy Clyro= Joy.Discovery.Invention
---------------------------------------------------------------------

Hey its me again.([email protected])Ive got a lot of requests for various 
tabs.so ill do the easiest first!!!but neway.here u go.erm.the begining has no effect 
obviously,maybe jus the slightest distortion that this guy blatently likes.then after 
jus whack on the distortion.Anyway.there you go.

verse
e|-------------------------------------------------------------------
b|-------------------------------------------------------------------
g|-------------------------4--------4--------------------------------
d|-------9-------9-----------5--------5------------------------------
a|-----7-------7------------------3----------------------------------
E|---0-------9----------3--------------------------------------------

look at slow motion, asleep at the door
next to destruction, reach for the sword.

e|-------------------------------------------------------------------
b|-------------------------------------------------------------------
g|-------------------------------------------------------------------
d|---7/9--7/9--7/11--7-------------------------9--------------------
a|---5/7--5/7--5/-9--5-----10----2------10-----7--------------------
E|---------------------------8----0-------8--------------------------

get up, get up, get o-ver
take me to your blackened sky

e|-------------------------------------------------------------------
b|-------------------------------------------------------------------
g|-------------------------4--------4----------(----4---5-)----------
d|-------9-------9-----------5--------5--------(------5---)----------
a|-----7-------7------------------3------------(-3--------)----------
E|---0-------9----------3--------------------------------------------

e|-------------------------------------------------------------------
b|-------------------------------------------------------------------
g|-------------------------------------------------------------------
d|---7/9--7/9--7/11--7----------------------------------------------
a|---5/7--5/7--5/-9--5-----10----2------10-----2--------------------
E|---------------------------8----0-------8-----0--------------------

e|-------------------------------------------------------------------
b|-------------------------------------------------------------------
g|-------------------------------------------------------------------
d|---7/9--7/9--7/11--7------------------------9---------------------
a|---5/7--5/7--5/-9--5-----10----7-----10-----7---------------------
E|---------------------------8-----------8---------------------------

fill
e|---------------------|---------------------------------------------
b|---------------------|---------------------------------------------
g|---------------------|---12-12-12-x-x-11-11------------------------
d|---9-9-9-9-9-9-9-9-9-|---------------------------------------------
a|---7-7-7-7-7-7-7-7-7-|---10-10-10-x-x--9--9------------------------
E|---------------------|---------------------------------------------

e|-------------------------------------------------------------------
b|-------------------------------------------------------------------
g|-------------------------------12-12-11-11-------------------------
d|---7/9-9---9-9-12-12---4/5-5---------------------------------------
a|---5/7-7---7-7-10-10---2/3-3---10-10--9--9-------------------------
E|-------------------------------------------------------------------
w/distortion(repeat several times)

passed away, hope you dont mind
whats the letter sent, to see us through

e|-------------------------------------------------------------------
b|-------------------------------------------------------------------
g|-------------------------------------------------------------------
d|-----------------7-----9-------------------------------------------
a|---5------4------5-----7-------------------------------------------
E|---3------2--------------------------------------------------------

if you want it, get it come and break my heart

e|-------------------------------------------------------------------
b|-------------------------------------------------------------------
g|-------------------------------------------------------------------
d|---5-----------------------5---------------------------------------
a|---3-------2---------------3-------2-------------------------------
E|-----------0-----------------------0-------------------------------

take me to your blackened sky

e|-------------------------------------------------------------------
b|-------------------------------------------------------------------
g|-------------------------------12-12-11-11-------------------------
d|---7/9-9---9-9-12-12---4/5-5---------------------------------------
a|---5/7-7---7-7-10-10---2/3-3---10-10--9--9-------------------------
E|-------------------------------------------------------------------
w/distortion(repeat several times)

passed away, hope you dont mind
whats the letter sent, to see us through

e|-------------------------------------------------------------------
b|-------------------------------------------------------------------
g|-------------------------------------------------------------------
d|---12---12----7----9-------9-----9----9---9----9------9-9~---------
a|---10----9----5----7-----7---7-7-------------7---7------7~---------
E|------------------------------------8---8-----------8--------------

if you want it, come and break my heart
take me to your blackened sky.

=====================================================================


Текст, аккорды и табулатура для песни "Joy Discovery Invention", исполняет "Biffy Clyro".
Используемые в песне аккорды можно найти в разделе Как брать аккорды. Аккорды для шестиструнной гитары. Другие песни можно найти на нашем сайте, воспользовавшись алфавитным указателем вверху страницы.


 
Ошибка в тексте? Выделите ошибку и нажмите Ctrl+Enter