---------------------------------------------------------------------
		     Biffy Clyro= Convex, Concave
---------------------------------------------------------------------

This is the second from last song i have of the old blackened sky album.ha,
i should have it done in time for the new one to come out.I think a few people
have asked for this one.well here it [email protected]

e|--------------------------------------------------
b|----------2-2-2-----------2-2-2-----------2--2----
g|----------0-0-0-----------0-0-0-----------0--0----
d|--------------------------------------------------
a|-----0-------------0----------------0-------------
D|---0---3--------0-----3-----------0---3-----------

e|--------------------------------------------------
b|----------2-2---------2-2-2-------2-2-------------
g|----------0-0---------0-0-0-------0-0-------------
d|--------------------------------------------------
a|---0--------------0-----------0-------------------
D|-----0---------0----3-------0---3-----------------

Fig1
e|--------------------------------------------------------------
b|----------2-2-2-----------2-2-2-----------2-2-2-------2-2-2---
g|----------0-0-0-----------0-0-0-----------0-0-0-------0-0-0---
d|--------------------------------------------------------------
a|-----0-------------0----------------0-------------0-----------
D|---0---3--------0-----3-----------0---3---------0---3---------

Verse(bass)
g|------------------
d|------------------
a|-----0------------
D|---0---0---3-3-3--(repeat over and over)

Bridge
e|-----------------------------------------------------------
b|-----------------------------------------------------------
g|---6--6-6--6--6-6--6--6-6--7--6-6--6--6-6--6--6-6----------
d|-----------------------------------------------------------
a|---4--4-4--4--4-4--4--4-4--4--4-4--4--4-4--4--4-4----------
D|-----------------------------------------------------------

Fig2
e|-----------------------------------------------------
b|-----------------------------------------------------
g|---7-7-7-7-7-7-7-7-9-9-9-9-9-9-9-9-------------------
d|-----------------------------------------------------
a|---5-5-5-5-5-5-5-5-7-7-7-7-7-7-7-7-------------------
D|-----------------------------------------------------

Fig1

Verse2
g|----------------
d|-----------3----
a|---0-0-3-0--0---
D|----------------

Bridge
(repeatFig2 twice)

Chorus
e|------------------------------------------------------------------
b|------------------------------------------------------------------
g|---------7-7-7-7-7-7-7-7-7-7-7-7--------7-7-7-7-7-6-6-6-6-6-6-6---
d|---2-0-0-0-0-0-0-0-0-0-0-0-0-0-0--2-0-0-0-0-0-0-0-0-0-0-0-0-0-0---
a|---2-0-0-5-5-5-5-5-5-5-5-5-5-5-5--2-0-0-5-5-5-5-5-4-4-4-4-4-4-4---
D|---2-0-0-0-0-0-0-0-0-0-0-0-0-0-0--2-0-0-0-0-0-0-0-0-0-0-0-0-0-0---
(repeat twice)

Post-Chorus
e|-------------------------------------------------------------------
b|-------------------------------------------------------------------
g|-------------------------------------------------------------------
d|---0-0-0-3-3-3-3-3-3-3-3-3-3-3-3-3-2-0-5-5-5-5-5-5-5-5-5-5-5-5-5-5-
a|---0-0-0-1-1-1-1-1-1-1-1-1-1-1-1-3-2-0-3-3-3-3-3-3-3-3-3-3-3-3-3-3-
D|---0-0-0-------------------------3-2-0-3-3-3-3-3-3-3-3-3-3-3-3-3-3-
(repeat4 times with the end to the last one going like this)

e|-------------------------------------
b|-------------------------------------
g|---10-12--7--10--12--10-12--10--12---
d|-------------------------------------
a|---8--10--5--8---10--8--10--8---10---
D|-------------------------------------
(you can work out the structure urself)

(for the d chord do a staggered flowing down stroke)
e|--------0-----0-----0-----0-----0-----0-----0-0-0-0-0-0-0-0---
b|--------3-----3-----3-----3-----3-----3-----3-3-3-3-3-3-3-3---
g|--------2-----2-----2-----2-----5-----5-----3-3-3-2-2-2-0-0---
d|--------0-----0-----2-----2-----0-----0-----0-----------------
a|--------------------------------------------------------------
D|---0-0----0-0---0-0---0-0---0-0---0-0---0-0-------------------

e|-----------------------------------------------------------
b|-----------------------------------------------------------
g|------------7----------7--7-7----------9----------9--9-9---
d|-----------------------------------------------------------
a|------------5----------5--5-5----------7----------7--9-9---
D|---0--0-0-0---0--0-0-0--------0--0-0-0---0--0-0-0----------

e|-----------------------------------
b|-----------------------------------
g|---5--5-5-5-5--5---5--5-5-5-5--5---
d|-----------------------------------
a|---3--3-3-3-3--3---3--3-3-3-3--3---
D|-----------------------------------

e|--------------------------------------------
b|--------------------------------------------
g|---5/72-2-2-2-2-2-2-2-2-2-2-2-2-2-2-2-2----
d|--------------------------------------------
a|---3/5-0-0-0-0-0-0-0-0-0-0-0-0-0-0-0-0----
D|--------------------------------------------

heavy bit
e|------------
b|------------
g|------------
d|---0----7---
a|---0----7---
D|---0----7---

e|---------------------------------------------
b|---------------------------------------------
g|---7-5-2-3-3-2-2-2-2-2-2-2-2-3-3-2-2-2-2-2---
d|---------------------------------------------
a|---5-3-0-1-1-0-0-0-0-0-0-0-0-1-1-0-0-0-0-0---
D|---------------------------------------------

Bit2
e|-------------------
b|-------------------
g|-------------------
d|---5---5---5---7---
a|---3---5---3---7---
D|---3---5---3---7---

e|--------------------
b|--------------------
g|---12-12-12-10-9----
d|--------------------
a|---10-10-10-8--7----
D|--------------------

(second time round at end)
e|-------------------
b|-------------------
g|-------------------
d|---5---5---5---2---
a|---3---5---3---2---
D|---3---5---3---2---

e|--------------------
b|--------------------
g|---12-12-12-10-9----
d|--------------------
a|---10-10-10-8--7----
D|--------------------

e|---------------------------------------
b|---------------------------------------
g|---9-9-9-9-9--9-9-9-9-9--9-9-9-9-9-----
d|---------------------------------------
a|---7-7-7-7-7--7-7-7-7-7--7-7-7-7-7-----
D|---------------------------------------

=====================================================================


Текст, аккорды и табулатура для песни "Convex Concave", исполняет "Biffy Clyro".
Используемые в песне аккорды можно найти в разделе Как брать аккорды. Аккорды для шестиструнной гитары. Другие песни можно найти на нашем сайте, воспользовавшись алфавитным указателем вверху страницы.


 
Ошибка в тексте? Выделите ошибку и нажмите Ctrl+Enter