INTRO          Drums       
E|------------------------------------------------------------
B|------------------------------------------------------------
G|0-0-0-0-----------------------------------------------------
D|2-2-2-2-----------------------------------------------------
A|------------------------------------------------------------
E|------------------------------------------------------------

VERSE
E|------------------------------------------------------------
B|-------0-------0-------0------------------------------------
G|-------------------------------0----------------------------
D|5-5-5-5-5-5-5-5-2-2-2-2-4-4-4-4-----------------------------
A|------------------------------------------------------------
E|------------------------------------------------------------

CHORUS
E|------------------------------------------------------------
B|-----1-0-0---3-0-0---5-0-0---7-0-0--------------------------
G| --0--0----0--0----0--0----0--0-----------------------------
D| -2-2-----4-4-----5-5-----7-7-------------------------------
A| 3-------5-------7-------9----------------------------------
E|------------------------------------------------------------

VERSE
E|------------------------------------------------------------
B|-------0-------0-------0------------------------------------
G|-------------------------------0----------------------------
D|5-5-5-5-5-5-5-5-2-2-2-2-4-4-4-4-----------------------------
A|------------------------------------------------------------
E|------------------------------------------------------------

CHORUS
E|------------------------------------------------------------
B|-----1-0-0---3-0-0---5-0-0---7-0-0--------------------------
G| --0--0----0--0----0--0----0--0-----------------------------
D| -2-2-----4-4-----5-5-----7-7-------------------------------
A| 3-------5-------7-------9----------------------------------
E|------------------------------------------------------------

Middle
E|------------2------------------------------------------------
B|------------3------------------------------------------------
G|--------5---2------------------------------------------------
D|5---2---5---0------------------------------------------------
A|5---2---3---0------------------------------------------------
E|3---0-------2------------------------------------------------

SOLO
E|-------------------------------------------------------------
B|8----12-12-12-10-88-----12-12-12-10-88-----12-12-12-10-12-12-
G|-------------------------------------------------------------
D|-------------------------------------------------------------
A|-------------------------------------------------------------
E|-------------------------------------------------------------

E|-------------------------------------------------------------
B|12---13-12-13---12---8-10-12-10-8-10-12-10-8-10-12-10-12-----
G|-------------------------------------------------------------
D|-------------------------------------------------------------
A|-------------------------------------------------------------
E|-------------------------------------------------------------

E|--------------------0----------------------------------------
B|12-13--12-13---12---0----------------------------------------
G|--------------------0----------------------------------------
D|--------------------2----------------------------------------
A|--------------------2----------------------------------------
D|--------------------0----------------------------------------

you and me, always you held my head above the waves
paddling around pretending that it was not too cold
it was but when you were there

our shadows softly on the grass
day would break we'd have our laughs
our shirt-tails in the wind
seems like yesterday my friend
i know that we were scared
hurt because you were not there
i know i want it all
wish the sky would fall on me

you and me, always
always

our shadows softly on the grass
day would break we'd have our laughs
our shirt-tails in the wind
seems like yesterday my friend
i know that we were scared
hurt because you were not there
i know i want it all
wish the sky would fall on me

i'm not through     i'm not through
i'm not through     i'm not through                      
i'm not through     i'm not through
i'm not through     i'm not through
i'm not through     i'm not through 
i'm not through     i'm not through
i'm not through     i'm not through
i'm not through     i'm not through
i'm not through     i'm not through

Enjoy


Текст, аккорды и табулатура для песни "Christophers River", исполняет "Biffy Clyro".
Используемые в песне аккорды можно найти в разделе Как брать аккорды. Аккорды для шестиструнной гитары. Другие песни можно найти на нашем сайте, воспользовавшись алфавитным указателем вверху страницы.


 
Ошибка в тексте? Выделите ошибку и нажмите Ctrl+Enter