e|---------------------------------------------------
b|---------------------------------------------------
g|---------------------------------------------------
d|---3-3-3-3-x-33-3-3---0-5-0-4h5-0-4-4-4-4-x-44-4-4-
a|---4-4-4-4-x-44-4-4---0-5-0-4h5-0-4-4-4-4-x-44-4-4-
D|---4-4-4-4-x-44-4-4---0-5-0-4h5-0-4-4-4-4-x-44-4-4-

e|-------------------------------------------------------------
b|-------------------------------------------------------------
g|-------------------------------------------------------------
d|---0-5-0-4h5-0-4-4-4-4-x-44-4-4--------------0-5-0-4h5-0-4-4-
a|---0-5-0-4h5-0-4-4-4-4-x-44-4-4--------------0-5-0-4h5-0-4-4-
D|---0-5-0-4h5-0-4-4-4-4-x-44-4-4--------------0-5-0-4h5-0-4-4-

e|---------------------------------------------
b|---------------------------------------------
g|---------------------------------------------
d|---4-4-x-44-4-4--------------0-5-0-4h5-5-0-0-
a|---4-4-x-44-4-4--------------0-5-0-4h5-5-0-0-
D|---4-4-x-44-4-4--------------0-5-0-4h5-5-0-0-

verse
e|--------------------------------
b|--------------------------------
g|------------7-----------------7-
d|---4--------7--------4--------7-
a|---4--------5--------4--------5-
D|---4-----------------4---------- (REPEAT TWICE)


e|---------------------------------------------
b|---------------------------------------------
g|---------------------------------------------
d|---11-9-7-6-6-66-66-6-7-9-7-7-77-77-7-11-9-7-
a|---9--7-5-4-4-44-44-4-5-7-5-5-55-55-5-9--7-5-
D|---------------------------------------------

e|-----------------------------------------------------------------
b|-----------------------------------------------------------------
g|-----------------------------------------------------------------
d|---4p0-7-7-9-9-9-9-9-9-7-7-7-7-2-2-2-2-7-7-9-9-9-9-6-6-7-7-9-9-x-
a|---4p0-5-5-7-7-9-9-9-9-5-5-7-7-0-0-0-0-5-5-7-7-9-9-4-4-5-5-7-7-x-
D|---4p0-5-5-7-7-9-9-9-9-5-5-7-7-0-0-0-0-5-5-7-7-9-9-4-4-5-5-7-7-x-

e|-----------------------------------
b|-----------------------------------
g|---2-2-2-2-9-9-9-9-7-7-7-7-7-7-7-7-
d|---0-0-0-0-7-7-7-7-5-5-5-5-5-5-5-5-
a|---0-0-0-0-7-7-7-7-5-5-5-5-5-5-5-5-
D|---0-0-0-0-7-7-7-7-5-5-5-5-5-5-5-5-

e|---------------------------------------------
b|---------------------------------------------
g|---------------------------------------------
d|---11-9-7-6-6-66-66-6-7-9-7-7-77-77-7-11-9-7-
a|---9--7-5-4-4-44-44-4-5-7-5-5-55-55-5-9--7-5-
D|---------------------------------------------

e|-----------------------------------------------------------------
b|-----------------------------------------------------------------
g|-----------------------------------------------------------------
d|---4h0-7-7-9-9-9-9-9-9-7-7-7-7-2-2-2-2-7-7-9-9-9-9-6-6-7-7-9-9-x-
a|---4h0-5-5-7-7-9-9-9-9-5-5-7-7-0-0-0-0-5-5-7-7-9-9-4-4-5-5-7-7-x-
D|---4h0-5-5-7-7-9-9-9-9-5-5-7-7-0-0-0-0-5-5-7-7-9-9-4-4-5-5-7-7-x-

-----5-------5-------5-----
-2h3---3-2h3---3-2h3---3-2-
---------------------------
---------------------------
---------------------------
---------------------------


e|---------------------------------
b|---------------------------------
g|-2-2-2-2-9-9-9-9-7-7-7-7-7-7-7-7-
d|-0-0-0-0-7-7-7-7-5-5-5-5-5-5-5-5-
a|-0-0-0-0-7-7-7-7-5-5-5-5-5-5-5-5-
D|-0-0-0-0-7-7-7-7-5-5-5-5-5-5-5-5-

outro
e|---------------------------
b|---------------------------
g|---------------------------
d|-11-11-1111-1111-11-9-7-7-
a|-9--9--9-9--9-9—9---7-5-5-
D|---------------------------

end on:
e|-----
b|-----
g|-----
d|--7--
a|--5--
D|--5--

this is my way of working it

not in perfect order but im supposed to be filling in a UCAS form at the minute

[email protected] (add me, im so lonely lol) 

(p.s. i seen biffy in belfast) hahahaha


Текст, аккорды и табулатура для песни "57", исполняет "Biffy Clyro".
Используемые в песне аккорды можно найти в разделе Как брать аккорды. Аккорды для шестиструнной гитары. Другие песни можно найти на нашем сайте, воспользовавшись алфавитным указателем вверху страницы.


 
Ошибка в тексте? Выделите ошибку и нажмите Ctrl+Enter