Bif Naked - We're Not Gonna Take It
Submitted By: TWIGGy5
EMail: [email protected]
Guitarist: Doug Fury
Album: Ready To Rumble Soundtrack
Dif.: 7
Tabbed by TWIGGy5

* = Strum 8x
^ = use wahmmy bar

Intro
G|11-11-11-11-10-10-10-10-8-8-8-8-6-6-6-6-|
D|11-11-11-11-10-10-10-10-8-8-8-8-6-6-6-6-|
A|-9--9--9--9--8--8--8--8-6-6-6-6-4-4-4-4-|

Verse (“We’re not gonna take it……”)
G|----6*----4*----6*----6-6-6-6-6-6-6-|
D|-4*-6*-4*-4*-4*-6*-4*-6-6-6-6-6-6-6-|
A|-4*-4*-4*-2*-4*-4*-4*-4-4-4-4-4-4-4-|
E|-2*----2*----2*----2*---------------|
 PM--------------------|

Chorus
G|----6*----4*----6*---11-11-11-11-10-10-10-10--8-8-8-8-6-6-6-6|
D|-4*-6*-4*-4*-4*-6*-4*11-11-11-11-10-10-10-10--8-8-8-8-6-6-6-6|
A|-4*-4*-4*-2*-4*-4*-4*-9--9--9--9--8--8--8--8--6-6-6-6-4-4-4-4|
E|-2*----2*----2*----2*----------------------------------------|

Verse P2 (“Your life is…..”)
G|----6*----4*----6*---11-11-11-11-10-10-10-10--8-8-8-8-6-6-6-6|
D|-4*-6*-4*-4*-4*-6*-4*11-11-11-11-10-10-10-10--8-8-8-8-6-6-6-6|
A|-4*-4*-4*-2*-4*-4*-4*-9--9--9--9--8--8--8--8--6-6-6-6-4-4-4-4|
E|-2*----2*----2*----2*----------------------------------------|
 Pm--------------------|

Bridge (“Whoa….”)
G|-9-9-9-9-9-9-9-9-8-8-8-8-6-6-6-6-|
D|-9-9-9-9-9-9-9-9-8-8-8-8-6-6-6-6-|
A|-7-7-7-7-7-7-7-7-6-6-6-6-4-4-4-4-|

Fill 1 (“We’re right! We’re free……”)
G|-------------------------6-6-6-6-6-6-6-6-6-6-6-6-6-6-6-6-|
D|-4--4-4--5--5-5--6--6-6--6-6-6-6-6-6-6-6-6-6-6-6-6-6-6-6-|
A|-4--4-4--5--5-5--6--6-6--4-4-4-4-4-4-4-4-4-4-4-4-4-4-4-4-|
E|-2--2-2--3--3-3--4--4-4----------------------------------|
                            ^ pm then slowly release pm

Chorus 2
G|----6*----4*----6*----|-%-|
D|-4*-6*-4*-4*-4*-6*-4*-|-%-|
A|-4*-4*-4*-2*-4*-4*-4*-|-%-|
E|-2*----2*----2*----2*-|-%-|

Chorus 2 (cont.)
G|11-11-11-11-10-10-10-10-8-8-8-8-6-6-6-6-|
D|11-11-11-11-10-10-10-10-8-8-8-8-6-6-6-6-|
A|-9--9--9--9--8--8--8--8-6-6-6-6-4-4-4-4-|

Solo
B|-7---7-9-----9---11-9-11-12---11-9---11-9----9--------------
G|---6-----6--------------------------------11----11-11-11~~~-
           ^               ^                             ^

Solo (cont.)
B|--14-14-14-14-14----7-7----7--9-------11-11-9-11/12----11-9---
G|------------------------6-------6---------------11------11
                                    ^ long slide       ^

Solo (cont.)
B|-9-11--------------|
G|------11-11-11--|

Fill 2 (“Anymore……”)
G|-6-6-6-6-6-6-6-|
D|-6-6-6-6-6-6-6-|
A|-4-4-4-4-4-4-4-4-|

Chorus 3
G|----6*----4*----6*----6*----6-6-6-6-6-6-6-|
D|-4*-6*-4*-4*-4*-6*-4*-6*-4*-6-6-6-6-6-6-6-|
A|-4*-4*-4*-2*-4*-4*-4*-4*-4*-4-4-4-4-4-4-4-|
E|-2*----2*----2*----2*----2*---------------|

Song Structure: -
We’re not gonna take it chanting……………………………
Drums
Intro
Verse
Chorus (“We’re not gonna take it…”)
Verse (“Oh you’re so condescending……”)
Bridge
Fill 1
Chorus
Solo
Bridge
Fill 1
Break For Drums
Fill 2
Chorus 3
Fade after 1x

There you go. Nice cover song…. Great chic cover song.
So yah, ummmmmm if you have any comments corrections or suggestions email 
me at [email protected]


Текст, аккорды и табулатура для песни "Were Not Gonna Take It", исполняет "Bif Naked".
Используемые в песне аккорды можно найти в разделе Как брать аккорды. Аккорды для шестиструнной гитары. Другие песни можно найти на нашем сайте, воспользовавшись алфавитным указателем вверху страницы.


 
Ошибка в тексте? Выделите ошибку и нажмите Ctrl+Enter