Bif Naked - Twitch
Tabbed By: Laura


This is an incredibly fun song to play once you get everything down. 

Intro/Verse:     x6
G:------------------------------------------------------------
D:--------------------------------------------7-7-7-5---------
A:--7---7-5--5-----------5-------7---7-5----------------------
E:----------------7-7-7-------------------7-------------------

Chorus: (0:38)  x2
G:----------------------------------------------------------------------------------------
D:------------------5------5--------------------------------------------------------------
A:--7-7-7-7-7-7-7-7---7-7----7-5------5-5-5-5-5-5-5-5-------------------------------------
E:-------------------------------7-5----------------------5-5-5-5-5-5—0-2-3-3-2-2-0-0-5-5-

G:----------------------------------------------------------
D:------------------------------------------------5---5-----
A:--5-5-5-5-5-5-5-5--------------------------5-7----7-------
E:--------------------5-5-5-5-5-5-5-5-5---7-----------------

Verse: (1:04-1:29) x4
G:----------------------------------------------------------
D:------------------------------------------7-7-7-5---------
A:--7---7-5--5----------5-----7---7-5-----------------------
E:----------------7-7-7----------------7--------------------

(1:29-1:54) Chorus x2

(1:54)
G:------------------------------------------------------------------
D:-------------------------------------------------7-7-7-7-7-7-7-7--
A:------------------------------------------------------------------
E:----0-3-4-5---0-3-4-5---0-3-4-5-5-5-5-5-5-5-5---------------------

During Solo: (2:04)
G:---------------------------------------------------------
D:------------------5------5--------------------------------
A:-7-7-7-7-7-7-7-7-----7-7----7-5--------5-5-5-5-5-5-5-5----
E:---------------------------------7-5----------------------


G:------------------------------------------------------------
D:------------------------------------------------------------
A:-------------------------------------5-5-5-5----------------
E:--5-5-5-5-5-5–0-2-3-3-2-2-0-0-5-5---------------------------

G:------------------------------------------------------
D:------------------------------------------------------
A:-7-7-7-7----------------------------------------------
E:-------------5-5-3-3-2-2-0-0-5-5-3-3-2-2-0-0----------


G:------------------------------------------
D:-----------------5-------5----------------
A:-7-7-7-7-7-7-7-7----7-7----7-5------------
E:---------------------------------7-5------


G:----------------------------------------------------------------
D:---------------5--------------------5---------------------5-----
A:-5-5-5-5--7-7----7-----5-5-5-5--7-7----7-----4-4-4-4--7-7---7---
E:----------------------------------------------------------------


G:-------------------------------------
D:----------------5--------------------
A:-4-4-4-4---7-7----7------------------
E:--------------------------------------

G:--------------------------------------------------------------------------------
D:--------------5---------------------5-----------------5-5-5-5-5-5-5-5-5-5-5-5---
A:-3-3-3-3--7-7----7-----3-3-3-3--7-7----7-----3-3-3-3--------------------------0-
E:--------------------------------------------------------------------------------

(2:36) 
G:---------------------------------------------------
D:---------------------------------------------------
A:-7-7-7-7-7-7-7-7-7-7-7-7-7-7-7-7--5-5-5-5-5-5-5-5--
E:---------------------------------------------------

G:------------------------------------------------------
D:-7-7-7-7-7-7-7-7--5-5-5-5-5-5-5-5---------------------
A:----------------------------------5-5-5-5-5-5-5-5-5---
E:------------------------------------------------------

G:-------------------------------------------
D:-------------------------------------------
A:-7-7-7-7-7-7-7-7-7-7-7-7-7-7-7-7-----------
E:-------------------------------------------

(2:49) Chorus to fade out

Tabbed by Laura.


Текст, аккорды и табулатура для песни "Twitch", исполняет "Bif Naked".
Используемые в песне аккорды можно найти в разделе Как брать аккорды. Аккорды для шестиструнной гитары. Другие песни можно найти на нашем сайте, воспользовавшись алфавитным указателем вверху страницы.


 
Ошибка в тексте? Выделите ошибку и нажмите Ctrl+Enter