Bif Naked - Dawn
Submitted By: TWIGGy5
EMail: [email protected]
Album: Purge
Dif.: 6
Tabbed by TWIGGy5

NOTE: Guitar 1 is all acoustic and Guitar 2 is electric

Intro (Gtr. 1)
D|-13-13-13-XX-8--8-8-8-3-3-3-/8-|
A|-13-13-13-XX-8--8-8-8-3-3-3-/8-|
E|-11-11-11-XX-6--6-6-6-1-1-1-/6-|

Verse (Gtr. 1)
G|-8-8-8-XXX-----------------|
D|-8-8-8-XXX-8-8-8-3-3-3-/8--|
A|-6-6-6-XXX-8-8-8-3-3-3-/8--|
E|-----------6-6-6-1-1-1-/6--|

Pre-Chorus (Gtr. 2) (“Damn, she’s dawning on……”)
G|-8-8-8-XXX---------------|-%-|-%-|-8-8-8-XXX---------------|
D|-8-8-8-XXX-8-8-8-3-------|-%-|-%-|-8-8-8-XXX-8-8-8-3----4--|
A|-6-6-6-XXX-8-8-8-3-------|-%-|-%-|-6-6-6-XXX-8-8-8-3----4--|
E|-----------6-6-6-1-------|-%-|-%-|-----------6-6-6-1----2--|

Chorus (Gtr. 2) (“She’s beautiful…..”)
D|-5-5-5--5--555--12-12-12--88--8-8-8--8--3-3-3-3-|-%-|-%-|
A|-5-5-5--5--555--12-12-12--88--8-8-8--8--3-3-3-3-|-%-|-%-|
E|-3-3-3--3--333--10-10-10--66--6-6-6--6--1-1-1-1-|-%-|-%-|
  Pm----|   Pm--|          Pm--------| 

Chorus (Gtr. 2) (cont.)
D|-5-5-5-5-5-5-5-5-5-|
A|-5-5-5-5-5-5-5-5-5-|
E|-3-3-3-3-3-3-3-3-3-|

Chorus 3 (Gtr. 2)
D|-5-5-5--5--555--12-12-12--88--8-8-8--8--3-3-3-|
A|-5-5-5--5--555--12-12-12--88--8-8-8--8--3-3-3-|
E|-3-3-3--3--333--10-10-10--66--6-6-6--6--1-1-1-| 8x
  Pm----|   Pm--|          Pm--------| 

End (Gtr. 2)
D|-5-5-5-5-5-5-5-5-5--------|
A|-5-5-5-5-5-5-5-5-5--------|
E|-3-3-3-3-3-3-3-3-3--------|

Song Structure
Intro (Gtr. 1)
Intro (Gtr. 1) (“She’s dawning on me……”)
Verse (Gtr. 1) (“For you I’m a good…..”)
Pre-Chorus (Gtr. 2)
Chorus (Gtr. 2)
Verse (Gtr. 1) (“Cold wind whispering…..”)
Pre-Chorus (Gtr. 2)
Chorus (Gtr. 2)
Pre-Chorus (Gtr. 2)
Chorus 3 (Gtr. 2)
End (Gtr. 2)

Okay there you go. I don’t know about the last guy that tabbed this song. 
No offense dude but waht were you smoking?? That tab was totally wrong!! 
I know this isn’t damn near perfect either but hey it’s better. If you have 
any comments, corrections or suggestions email me at [email protected]
===========Bif Naked - Dawn
Submitted By: Kanjiono22
EMail: [email protected]
Album: Purge


Intro 
|---6--1-- 
|-6-8--3--
|-8-8--3--
|-8-------
|---------
|---------
Chorus:
|---6--1----
|-6-8--3----
|-8-8--3----
|-8---------
|-----------
|-----------
She Started on me-
she started on me
She started on me


Verse
|--3---1--
|--5-1-3--
|--5-3-3--
|----3----
|---------
|---------
Verse1: 
For you im a good for nothing, youre mine
Red lipstick, red leaves fall on my knees like autumn
I miss cigarettes every single day of my life
when you make love to me, i close my eyes and prey you'll say goodbye

Chorus
|---6--1-------|-1-2-3---|
|-6-8--3-------|-3-4-5---|
|-8-8--3-------|-3-4-5---|
|-8------------|---------|
|--------------|---------|
|--------------|---------|

Damn, she started on me
newley dawned it on me
she started on me


Bridge thing. or post chorus  thing? 
i dont know what to call it:
|-3-----6--1---|3|
|-5--5--8--3---|5|
|-5--7--8--3---|5|
|----7---------|-|
|--------------|-|
|--------------|-|

she's beautiful
She's beautiful
and i betchya dont know what love is
its just that you do not love me
-
Verse2
cold wind whisperin in my lonely ear
Telling me that heartbreak is drawing near
you so hungry baby you;ll eat anything on your plate
I guess you dont come home no more, cuz you got a secret  date
Youve gotta hit me on the head a few time
so blind wiht wishes I cant see past your smiling eyes
I miss nicolas every single day of my life
Give me back all my __?__?____ ill show you right

Chorus.
bridge
Chorus
bridge thing
bridge 
and agian

I know that they lyrics arn't rite.
and comments or what not, send em to [email protected]


Текст, аккорды и табулатура для песни "Dawn", исполняет "Bif Naked".
Используемые в песне аккорды можно найти в разделе Как брать аккорды. Аккорды для шестиструнной гитары. Другие песни можно найти на нашем сайте, воспользовавшись алфавитным указателем вверху страницы.


 
Ошибка в тексте? Выделите ошибку и нажмите Ctrl+Enter