Вступление:

   Dm           Am       B            F
D|---7----7---|-10-----|---3----3-5-|-7----|
A|-8----8---8-|------7-|-5----5-----|------| > 4 раза
E|------------|--------|------------|----8-|

       Dm          Am
Жадно так глотает солнце
Два серебряных крыла
Милый друг твой не вернется
        B          F
В этот город никогда

И огни усталых улиц
Станут по тебе скучать
Только им печаль такую
В своем сердце не унять

	Gm        Dm    C          B
	   И зажигать...  пьяные звезды...
	   Нет, без тебя... так будет сложно...


Как легко плывут ресницы
Не узнает твой герой
Если что нибудь случится
Где-то за морем с тобой

С ним теперь другое небо
Облака над головой
И ступает ангел следом
Незнакомый и чужой

	Припев

Все коварная разлука 
Обнимала как сестра
Превращая ее руки
В два серебряных крыла

Сколько дождь шептал а толку
Ей казалось не в серьез
И разбилось на осколки
Всех невыплаканых слез

	Припев > 2 раза

Кода:

   Dm           Am    F            B
e|-13---13/15-|----|--13---13/15-|---------------------------|
H|------------|-13-|-------------|-10------------------------|
G|------------|----|-------------|---------------------------|

   Dm           Am    F            B
e|-13---13/15-|----|--13---13/15-|---------------------------|
H|------------|-13-|-------------|-10--10h12h13p12p10h12p10--|
G|------------|----|-------------|---------------------------|


Текст, аккорды и табулатура для песни "Зажигать", исполняет "Би-2".
Используемые в песне аккорды можно найти в разделе Как брать аккорды. Аккорды для шестиструнной гитары. Другие песни можно найти на нашем сайте, воспользовавшись алфавитным указателем вверху страницы.


 
Ошибка в тексте? Выделите ошибку и нажмите Ctrl+Enter