Вступление:
 
e---------------------------------------------------------
a--2-5--2-5-----------2-5--2-5----------------------------
d------------2-4---4------------2-4/7-7-4-5--5-5-7-4--2-0-
g---------------------------------------------------------
b---------------------------------------------------------
e---------------------------------------------------------
  
//Во вступлении и нижеприведенном соло советую побольше 
//использовать форшлаги и слайды

Hm(2)
У героев стынет кровь,
Разбиваются и вновь
          Em
Идут ко дну,
          Hm(2)
Идут ко дну

Успокоит океан,
И расстелет по волнам
Свою вину, 
Свою вину

 Под припев:
  тремоло            / быстро  / тремоло
e----3-----------------------------3------------------------
a-----------------2--2-4-5-------------------------------4--
d--5-----5-7-5-4-----------2-4-5-----5-7-5-4-4---4-4-2-0----
g-----------------------------------------------------------
h-----------------------------------------------------------
e-----------------------------------------------------------



C(3)            Hm(2)
Кончится пленка
 C(3)            F#
Ты ждешь ребенка

От меня 

Hm(2)                                  
М-мм-мм-м,  М-мм-мм-м 
          Em
Моя любовь
          Hm(2)
Моя любовь


Уходили в плаванье
За чужие гавани
Вести войну,
Вести войну

Но известно лишь волнам
Что оставит океан 
Тебя одну,
Тебя одну

Соло:

e-----------------------------------------------------
a-----------------------------------------------------
d-----------------------------------------------------
g------------------------------11-----6-6-7-4-3-0-----
h----7---9------14-14-12-11-12------------------------
e--7---9----12------------------------6-6-7-3-2-0-----

e-----------------------------------------------------
a-----------------------------------------------------
d-----------------------------------------------------
g--7-7-9--4-3-0---------------------------------------
h------------------------------------15-14-12-11------
e--7-7-9--3-2-0-------12-14-15-14-12------------------


Текст, аккорды и табулатура для песни "Моя любовь", исполняет "Би-2".
Используемые в песне аккорды можно найти в разделе Как брать аккорды. Аккорды для шестиструнной гитары. Другие песни можно найти на нашем сайте, воспользовавшись алфавитным указателем вверху страницы.


 
Ошибка в тексте? Выделите ошибку и нажмите Ctrl+Enter