Artist: Better Than Ezra
Song: Misunderstood
Album: Closer

By: The Wizman


Intro
(sounds like an organ) but for guitar


e|------------------------------------------------------------|
B|------------------------------------------------------------|
G|------------------------------------------------------------|
D|---7--9-9---7^9--5-5---10-9---------------------------------|
A|------------------------------------------------------------|
E|------------------------------------------------------------|

(the above part comes back later throughout the song)


Verse

“Talkin in her sleep again...”

e|--3------0^2----------3-------------------3-3---xx----------
B|--3------3------------3------1p0----------3-3---xx----------
G|--0-------------------0------0----0^2-----0-0---xx----------
D|------0-------xxx-----2-------------------------------------
A|--------------xxx---------3---------------------------------
E|--------------xxx--0-------------------3--------------------

e|-----0^2p0-----3-3------------------------------------------|
B|-----3---------3-3---1—1p0----------------------------------|
G|---------------0-0---0-------0^2----------------------------|
D|--0------------2-2------------------------------------------|
A|------------------------------------------------------------|
E|------------0-----------------------------------------------|


Chorus

“oh yeah, all-right, truth hurts inside”

e|------------------------------------------------------------|
B|------------------------------------------------------------|
G|----------7---7-------------5----5--------------------------|
D|--5----5--7---7----2-----2--5----5--------------------------|  2X
A|--5----5--5---5----2-----2--3----3--------------------------|
E|--3----3-----------0-----0----------------------------------|



Strumming Part After Chorus

These are the chords and amounts played, you figure the timing

e|--3------------------3--------3------------|
B|--3---------3--------3--------3------------|
G|--0---------2--------0--------0------------|  repeat 2x
D|--0---------0--------2--------0------------|  (may be played more
A|--X------------------2--------3------------|   later in the song)
E|--3------------------0---------------------|

    7X        6X       7X       8X



First solo with humming

e|--3/5--3-----------------3/5--3-----------------3/5--3----------
B|---------5p3—3^5--3---3----------5p3-3^5--3------------5p3—3^5--
G|--------------------4-----------------------4-------------------
D|----------------------------------------------------------------
A|----------------------------------------------------------------
E|----------------------------------------------------------------


e|----------------------------------------------------------|
B|--3---3---------------------------------------------------|
G|----4--------2-2-2-2---2-2-2-2---4------------------------|
D|----------------------------------------------------------|
A|----------------------------------------------------------|
E|----------------------------------------------------------|

Enjoy!


Текст, аккорды и табулатура для песни "Misunderstood", исполняет "Better Than Ezra".
Используемые в песне аккорды можно найти в разделе Как брать аккорды. Аккорды для шестиструнной гитары. Другие песни можно найти на нашем сайте, воспользовавшись алфавитным указателем вверху страницы.


 
Ошибка в тексте? Выделите ошибку и нажмите Ctrl+Enter