Better Than Ezra – Good

This tab is 100% correct. Better Than Ezra is an awesome band, and this is a
great song. I have been searching for these tabs (correct ones that is) for
months but couldn't find them so i decided to tab it myself. Sorry I don't have
the strum patterns but it is in 4/4th's time and is very basic. You shouldn't
have any trouble, if so, contact me as shown below. Enjoy!

Intro/Chorus: x2
     G        D        Em       C  
|-----------------------------------------------------------------------|
|-----------------------------------------------------------------------|
|-----------------------------------------------------------------------|
|----5--------12-------2--------10--------------------------------------|
|----5--------12-------2--------10--------------------------------------|
|----3--------10-------0---------8--------------------------------------|

Bass riff during verse:(Guitar doesn't play) x6

E string of Bass: |--3-3-3-3----10-10-10-10----0-0-0-0----8-8-8-8---|    

After the verse, play chorus twice as shown above, verse again then the chorus 4 times.

Bridge: x2
     G        D        Em       C  
|--------7--------5--------7---------8----------------------------------|
|--------8--------7--------8---------8----------------------------------|
|-----------------------------------------------------------------------|
|----5--------12-------2--------10--------------------------------------|
|----5--------12-------2--------10--------------------------------------|
|----3--------10-------0---------8--------------------------------------|
    xxx       xxx     xxx       xxx  
Palm mute these power chords then let the B and E strings ring.

Bridge continued: x4
|---3-------------------------------------------------------------------|
|---3-------------------------------------------------------------------|
|---0----0---4-5-4---0-0---4-5-4-5--------------------------------------|
|-----------------------------------------------------------------------|
|-----------------------------------------------------------------------|
|-----------------------------------------------------------------------|

Verse 3: (palm-muted) x2

     G        D        Em       C  
|-----------------------------------------------------------------------|
|-----------------------------------------------------------------------|
|-----------------------------------------------------------------------|
|----5--------12-------2--------10--------------------------------------|
|----5--------12-------2--------10--------------------------------------|
|----3--------10-------0---------8--------------------------------------|
    xxx      xxxx     xxx      xxxx    Palm mute these

Chorus: x4

Solo: this will play while the rhythm guitar plays the chorus
|-----------------------------------------------------------------------|
|----5-5-5-5-5-5-5-5-5-5-5-5-5-5-5-5-5-5--------------------------------|
|----7-7-7-7-7^7^7^7^7^7^7^7^7-7-7-7-7-7--7-5-7-5-----------------------|
|---------------------------------------------------7-------------------|
|-----------------------------------------------------------------------|
|-----------------------------------------------------------------------|
    Bend only the G string gradually up to a whole bend then slowly release it.

Second half of solo:
|-----------------------------------------------------------------------|
|----10-10-10-10-10-10-10-10-10-10-10-10--13-----10-10-10-10-10-10-10---|
|----12-12-12-12^12^12^12^12-12-12-12-12-----14--12-12-12^12^12-12-12---|
|-----------------------------------------------------------------------|
|-----------------------------------------------------------------------|
|-----------------------------------------------------------------------|
    This half of the solo is played just like the first as far as bending goes.

After the solo just play the chorus until the song ends. 
  
ENJOY!!!!
Tabbed by: Joe Larriviere, Baton Rouge, LA
If you want to contact me:   s/n:  ace6868
                           email:  [email protected]


Here are the lyrics:

Lookin' around the house 
Hidden behind the window and the door 
Searchin' for signs of life but there's nobody home 

Well maybe I'm just too sure 
Or maybe I'm just too frightened by the sound of it 
Pieces of note fall down but the letter said, 

Whoh how, it was good, living with you, 
Whoh how, it was good, 
Whoh how, it was good, living with you, 
Whoh how, it was good, ohhh 

good good good good good good 

Sittin' around the house 
Watching the sun drape shadows on the floor 
Searchin' for signs of life but there's nobody home 

Well maybe I'll call or write you a letter 
Now maybe we'll see on the 4th of July 
Well I'm not too sure, and I'm too proud 
Well I'm not too sure and I'm not too proud to say 

[chorus] 

[solo] 

[chorus again]


Текст, аккорды и табулатура для песни "Good", исполняет "Better Than Ezra".
Используемые в песне аккорды можно найти в разделе Как брать аккорды. Аккорды для шестиструнной гитары. Другие песни можно найти на нашем сайте, воспользовавшись алфавитным указателем вверху страницы.


 
Ошибка в тексте? Выделите ошибку и нажмите Ctrl+Enter