Вступление:
E||--------------------------|---------------------------|
H||--------------------------|---------------------------|
G||--5-5-5-4--2--------4-4-4-|--2----------2-4-----5-5-5-|
D||--------------------------|-----4--4-5----------------|

-----------------------|---------------------|
-----------------------|---------------------|
--4---2----------4-----|---------------5-5-5-|
----------4---5--------|---------------------|

-------------------------|--------------------------|
-------------------------|--------------------------|
--4--2--------4-4-4-2----|--------2-4------5-5-5-4--|
-----------------------4-|---4-5--------------------|

----------------------||
----------------------||
---2------------------||
-------5---4--5-------||
   
                G5                         E5
Я знаю чайкам снятся корабли, штурмующие север
                C5                            D5
Я знаю, скоро выйдет из земли моих сомнений клевер
            G5                                 H5
Сумеем ли узнать друг друга мы, когда умрет последний снежный день
     C5     D5         G5
Не увидеть обид наших тень

Из фильмов мы узнали обо всем, узнали в интернете
Мы будем изучать друг друга днем при самом ярком свете
Оставим за порогом сотни слов, придуманных когда-то сотни раз
Таких новых и знакомых фраз

	          F G          C         Am
	В восемь часов свет зажигают города
	          F G         C          Am 
	Сможем ли мы собой остаться навсегда
	       F G           C
	Не потерять самих себя

Нас ждут на площадях больших столиц дождливыми ночами
Среди холодных дат и новых лиц что будет завтра с нами
Сумеем ли узнать друг друга мы, когда уйдет последний день зимы
Не увидеть обид наших тень


Текст, аккорды и табулатура для песни "В 8 часов", исполняет "Ber-linn".
Используемые в песне аккорды можно найти в разделе Как брать аккорды. Аккорды для шестиструнной гитары. Другие песни можно найти на нашем сайте, воспользовавшись алфавитным указателем вверху страницы.


 
Ошибка в тексте? Выделите ошибку и нажмите Ctrl+Enter