Последний новый день
Official version
вступление

e:------------          -------
B:------------          -------
G:------------  3 times -------
D:------------          -------
A:--7-3-5-5---          -7-3-5-
E:--5-1-7-3---          -5-1-3-

куплет - 1 строка, и так каждую кроме =ПОД НАЗВАНИЕМ...=
    Am         F          Dm         G
e:-----------|-----------|-----------|-----------|-
B:-----------|-----------|-----------|-----------|-
G:-----------|-----------|--7---7-7--|-----------|-
D:--7---7-7--|--3---3-3--|--7---7-7--|-----------|-
A:--7---7-7--|--3---3-3--|--5---5-5--|--5---5-5--|-
E:--5---5-5--|--1---1-1--|-----------|--3---3-3--|-

Над черным снегом открытых нервов
Летят как песни поезда
На красном небе белым солнцем
Ворвется подшофе весна
Не было не было не было жаль бросить все
Не было не было сомнений вступить в батальон
e:-3-
B:-0-
G:-0- c плеча =)))
D:-0-
A:-2-
E:-3-
Под названьем... 
припев - 1 строка, и так каждую
    C              E              Am             F    G
 
e:--------------|--------------|--0---0-0--0--|--------------|-
B:--------------|--------------|--1---1-1--1--|--------------|-
G:--5---5-5--5--|--1---1-1--1--|--2---2-2--2--|--------------|-
D:--5---5-5--5--|--2---2-2--2--|--2---2-2--2--|--3----5------|-
A:--3---3-3--3--|--2---2-2--2--|--0---0-0--0--|--3----5------|-
E:--------------|--0---0-0--0--|--------------|--1----3------|-

Последний новый день на улицах весна
Последний новый день как в тех боевиках
здесь есть у нас с тобой одна страна
и больше нету ни черта - последняя черта
Шумят вокзалы гудят заводы
Пусть бьют фонтаны ярых звезд
Верхом на небе где самолеты
Давно не видевшие гнезд своих
Не было не было не было жаль бросить все
Не было не было сомнений вступить в батальон
Под названьем... 
Последний новый день на улицах весна
Последний новый день как в тех боевиках
Здесь есть у нас с тобой одна страна
И больше нету ни черта - последняя черта
Другое солнце другие звезды 
Застыли в небе над Невой
Глаза не видят но все запомнят
Чтоб день за день и ночь за ночь
Не было не было не было жаль бросить все
Не было не было сомнений вступить в батальон
Под названьем... 
Последний новый день на улицах весна
Последний новый день как в тех боевиках
Здесь есть у нас с тобой одна страна
И больше нету ни черта - последняя...
проигрыш
Am F Dm G
Последний новый день на улицах весна
Последний новый день как в тех боевиках
Здесь есть у нас с тобой одна страна
Ибольше нету ни черта - последняя черта

Последний новый день на улицах весна
Последний новый день я шел искать тебя
Последний новый день последний новый день
Последний новый день последний новый


Текст, аккорды и табулатура для песни "Последний Новый День", исполняет "Ber-linn".
Используемые в песне аккорды можно найти в разделе Как брать аккорды. Аккорды для шестиструнной гитары. Другие песни можно найти на нашем сайте, воспользовавшись алфавитным указателем вверху страницы.


 
Ошибка в тексте? Выделите ошибку и нажмите Ctrl+Enter