Вступление:
    G         D        Em        D               >2 раза
E||---------|--------|---------|-----------------|
H||-8---10--|-8---7--|-8---10--|-8---10---7-8-10-|
G||---7-----|---7----|---7-----|---7----7--------|
D||---------|--------|---------|-----------------|
A||---------|--------|---------|-----------------|
E||---------|--------|---------|-----------------|

    G           D          Em          D                 >2 раза
E||-----------|----------|-----------|-------------------|
H||---8---10--|---8---7--|---8---10--|---8---10---7-8-10-|
G||-7---7-----|-7---7----|-7---7-----|-7---7----7--------|
D||-----------|----------|-----------|-------------------|
A||-----------|----------|-----------|-------------------|
E||-----------|----------|-----------|-------------------|

 G        D
Последний  день лета
 Em       D
В вопросах ответах
Миллионы явлений
Сквозь призму их мнений

Припев:
G        D           Em
Твоя рука в моей руке
         C           G
И волны пишут на песке           
Ты не одна ты не одна
И солнце на твоих губах

Проигрыш:
   G             Dsus4         Em            C          > 4 раза
E||-------------|------------|-------------|-------------|
H||-------------|------------|-------------|-------------|
G||-------------|------------|-------------|-------------|
D||-5---5---5---|-4---4--4---|-5---5---5---|-5---5---5---|
A||---5---5---5-|---5---5--5-|---2---2---2-|---3---3---3-|
E||-------------|------------|-------------|-------------|

Пылают экраны
Открыты раны
Немного света
В последний день лета

Припев
Проигрыш: G D Em C 

    


Текст, аккорды и табулатура для песни "Последний день лета", исполняет "Ber-linn".
Используемые в песне аккорды можно найти в разделе Как брать аккорды. Аккорды для шестиструнной гитары. Другие песни можно найти на нашем сайте, воспользовавшись алфавитным указателем вверху страницы.


 
Ошибка в тексте? Выделите ошибку и нажмите Ctrl+Enter