(album version)
                    ----
[взято из коллекции nebo] По всем вопросам обращайтесь - [email protected]
                    ----

Пианино:

   G     D    C   D        G     D     C     D
=======================================================|
E------------------------------------------------------|
B------------------------------------------------------|
G--------------------------------------5-4---5-4----7--|
D--5---5-7--7-5---5-4-5-7--5---5-7---7-----5-----4-----|
A----5----5-----3------------5-----5-------------------|
E------------------------------------------------------|


Соло:
   G               D               Em              C
=====================================================================|
E--------------------------------------------------------------------|
B--------------------------------------------------------------------|
G--4-4-4-4-4-4-4-4-2-2-2-2-5-5-4-4-0-0-0-0-0-0-0-0-7-7-7-7-5-5-5-5---| 


Текст, аккорды и табулатура для песни "Настя", исполняет "Ber-linn".
Используемые в песне аккорды можно найти в разделе Как брать аккорды. Аккорды для шестиструнной гитары. Другие песни можно найти на нашем сайте, воспользовавшись алфавитным указателем вверху страницы.


 
Ошибка в тексте? Выделите ошибку и нажмите Ctrl+Enter