----
[взято из коллекции nebo] По всем вопросам обращайтесь - [email protected]
                    ----

В начале:

=======================================|
E--------------------------------------|
B--------------------------------------|
G--------------------------------------|
D------5-----5---5-----4-----5---5-----|
A--3-3---3-3---3---5-5---5-5---5-------|
E----------------------------------3---|

Бас в начале:
 
=======================================|
G--------------------------------------|
D--------------------------------------|
A--3-3-3-3-3-3-3-3-5-5-5-7-7-7-9-9-10--|
E--------------------------------------|

Перебор:
   G               Em              C               D                          D
===================================================================|       |=====|
E------------------------------------------------------------------|       |-----|
B------------------------------------------------------------------|       |-----|
G--------------------------------------5-----5---5-----4-----5---5-| 


Текст, аккорды и табулатура для песни "Линки", исполняет "Ber-linn".
Используемые в песне аккорды можно найти в разделе Как брать аккорды. Аккорды для шестиструнной гитары. Другие песни можно найти на нашем сайте, воспользовавшись алфавитным указателем вверху страницы.


 
Ошибка в тексте? Выделите ошибку и нажмите Ctrl+Enter