---------------------------------------------------------------------
                  Ben Fold Five – Rockin the Suburbs
---------------------------------------------------------------------

By: RandomGuy

To lazy to write rhythm.

Riff 1
e|-------------------------------------------------------------------
B|-------------------------------------------------------------------
G|-5--7--5--5--------------------------------------------------------
D|-5--7--3--5--------------------------------------------------------
A|-3--5--3--3--------------------------------------------------------
E|-------------------------------------------------------------------

Riff 2
e|-------------------------------------------------------------------
B|-------------------------------------------------------------------
G|-5--7--10----5--5--------------------------------------------------
D|-5--7--10----3--5--------------------------------------------------
A|-3--5---8----3--3--------------------------------------------------
E|-------------------------------------------------------------------

Riff 3
e|-------------------------------------------------------------------
B|-------------------------------------------------------------------
G|-9---15-14--17-16--19----------------------------------------------
D|-11----------------------------------------------------------------
A|-11----------------------------------------------------------------
E|-------------------------------------------------------------------

Riff 4
e|-------------------------------------------------------------------
B|-------------------------------------------------------------------
G|-5--7--10----5--7--5-----------------------------------------------
D|-5--7--10----5--7--3-----------------------------------------------
A|-3--5---8----3--5--3-----------------------------------------------
E|-------------------------------------------------------------------


Chorus 1
e|-------------------------------------------------------------------
B|-------------------------------------------------------------------
G|-5--7--5--5------5--7----------------------------------------------
D|-5--7--3--5------5--7----------------------------------------------
A|-3--5--3--3------3--5----------------------------------------------
E|-------------------------------------------------------------------

Riff 5
e|-------------------------------------------------------------------
B|-------------------------------------------------------------------
G|--12--14--17-------------------------------------------------------
D|--12--14--17-------------------------------------------------------
A|--10--12--15-------------------------------------------------------
E|-------------------------------------------------------------------

Riff 6
e|-------------------------------------------------------------------
B|-------------------------------------------------------------------
G|-5--7--9----5--7--10--9--7-----------------------------------------
D|-5--7--9----5--7--10--9--7-----------------------------------------
A|---------------------------------------------------------------
E|-------------------------------------------------------------------



Chorus 2
e|-------------------------------------------------------------------
B|-------------------------------------------------------------------
G|-5--5--7--5--------------------------------------------------------
D|-5--3--5--5--------------------------------------------------------
A|-3--3--5--3--------------------------------------------------------
E|-------------------------------------------------------------------



Order:
Riff 1
Riff 1, Riff 2
Riff 3
Riff 2
Riff 2, Riff 4
Riff 4
Chorus 1
Riff 1, Riff 2
Riff 1, Riff 5
Riff 1,
Chorus 1
Riff 6
Riff 3
Riff 4
Chorus 1
Chorus 2

That is most of it and close to it. This is my first tab so if it suck, I have and 
excuse. If it’s good, score!


Текст, аккорды и табулатура для песни "Rockin The Suburbs", исполняет "Ben Folds Five".
Используемые в песне аккорды можно найти в разделе Как брать аккорды. Аккорды для шестиструнной гитары. Другие песни можно найти на нашем сайте, воспользовавшись алфавитным указателем вверху страницы.


 
Ошибка в тексте? Выделите ошибку и нажмите Ctrl+Enter