Ben Folds
Give Judy My Notice


intro

F        Am
-------------------
---1---------------
------3-2-0--------
-----------3-2-0---
-------------------
-------------------

Gm        Bb
-------------------
-------------------
--3-2-0------------
--------3---2-3----
----------------3--
-------------------



F
Judy 
Am               Gm          Bb
Could anyone be loved anymore 


---3----------
---5----------
---5----------
---5----------
---3----------
-------------- 
than I love you 
Bb
does it hurt you too? 

Well, Judy 
I've been feeling small too long 
I love you so 
but something's wrong 




---3----------
---5----------
---5----------
---5----------
---3----------
--------------     			    Bb
and I come running when you want me here 
and when you want me to, I disappear 
Judy 


intro



I knew if I made it easy for you 
you'd settle for me, yeah eventually 

but Judy 
I can't be myself anymore 
it's way too hard 
being loved by default 

and I can't do this any longer 
the vacuum left is so much stronger 
Judy 





---3----------
---5----------
---5----------
---3----------
---3----------
--------------            Bb
Judy you know I'm not mad anymore 
         F
at least most of the time 
	     Am		     Gm
but it could take a while 
F                Am		  Gm
I've been living just to see you smile 
                Bb
every once in a while 

tears fall 
but that don't mean nothing at all 
Just cause I said it first 
that's why it hurts 

And Judy, 
I won't be your bitch anymore 
and follow you around 
and hold the door 

i'm not sorry if 
you're not sorry 
and you're not sorry 
till I make you Judy 
Judy 
Give Judy 
Give Judy My Notice 
Give Judy My Notice


Текст, аккорды и табулатура для песни "Give Judy My Notice", исполняет "Ben Folds Five".
Используемые в песне аккорды можно найти в разделе Как брать аккорды. Аккорды для шестиструнной гитары. Другие песни можно найти на нашем сайте, воспользовавшись алфавитным указателем вверху страницы.


 
Ошибка в тексте? Выделите ошибку и нажмите Ctrl+Enter