----------------------------------------------------------------------------
                            BRICK-Ben Folds Five
----------------------------------------------------------------------------
Tabbed by: Pandaman
E-mail: Pandaman829

Tuning: DGDGBE

Intro/Verse
E|-2-----2---0----0-----0-------0---|
B|-----3--------3-----3---3---3-----|
G|---2-----2--------2-------2-------|
D|----------------------------------|
G|----------------0-----0-----0-----|
D|-0-----0----0---------------------|

Last time on intro
E|-2-----2---0---------0---------0---|
B|-----3---------3---3-----3---3-----|
G|---2-----2-------2-----1---2-------|
D|-----------------------------------|
G|-4-----4-----4---------------------|
D|-----------------2-----2-----2-----|

Pre Chorus
E|-2-----2---0-----0-----0-------0---|
B|-----3---------3-----3---3---3-----|
G|---2-----2---------2-------2-------|
D|-----------------------------------|
G|-4-----4-----4---0-----0-----0-----|
D|-----------------------------------|

Chorus
E|-333-55555-55555555---333-55555-555555-55---333-55555-55555555|
B|-333-55555-55555555---333-55555-555555-55---333-55555-55555555|
G|-444-66666-77777777---444-66666-777777-55---444-66666-77777777|
D|-555-77777-77777777---555-77777-777777-77---555-77777-77777777|
G|--------------------------------------------------------------|
D|--------------------------------------------------------------|

First ending
E|-----------------2---|
B|-0-----2-----0---3---|
G|---0-----2-------2---|
D|-----0-----0---0-0---|
G|-0-----2-----0---2---|
D|-----------------0---|

Second ending
E|-------0-----------0-------------2---|
B|-3-----2-----3-----2-------3-----3---|
G|-4-0-----2---4-0-------2---4-----2---|
D|-----0-----0-----0---0-4-0---0---0---|
G|-0-----2-----------2-------0---2-2---|
D|-----------------------4---------0---|

E|-------0-----------0-----------|
B|-3-----2-----3-----2-------3---|
G|-4-0-----2---4-0-------2---4---|
D|-----0-----0-----0---0-4-0-----|
G|-0-----2-----------2-------0---|
D|-----------------------4-------|

Bridge
E|-----0-----0---------0-----0---------0-----0---0---|
B|---3-----3---0-3---3-----3-----3---3-----3---------|
G|-2-----1---------2-----0---------2-----0-----------|
D|-----------------------------2---------------3-----|
G|-----------------0-----0-----0---------------------|
D|-2-----2-----2-------------------0-----0-----0-----|

Bridge Ending
E|-----0-----0-----3---|
B|---3-----3---0-3-0---|
G|-2-----1---------2---|
D|-----------------0---|
G|-----------------0---|
D|-2-----2-----2---0---|

Intro x3
Intro-Last

Verse x10

Pre-Chorus x2
Verse
Intro-Last

Chorus w/ First Ending

Verse x4

Pre-Chorus x2
Verse
Intro-Last

Chorus w/ Second Ending

Bridge x3
Bridge Ending

Verse x6

Chorus w/ Second Ending

Enjoy. If you want the sheet music e-mail me.


Текст, аккорды и табулатура для песни "Brick", исполняет "Ben Folds Five".
Используемые в песне аккорды можно найти в разделе Как брать аккорды. Аккорды для шестиструнной гитары. Другие песни можно найти на нашем сайте, воспользовавшись алфавитным указателем вверху страницы.


 
Ошибка в тексте? Выделите ошибку и нажмите Ctrl+Enter