Guitar 1
e---------------------------------------------------------------------
b-14-14-14-12-11--14-14-14-12-11--11-11-11-9-7-7-7-7-7-9-11-11-11-9--
g---------------------------------------------------------------------
d---------------------------------------------------------------------
a---------------------------------------------------------------------
e---------------------------------------------------------------------

e-------------------------------------------------------
b-7-7-7-7-7-9-6-6-6-6-7-4-4-4-2-0-2-2-2---0-2-2-2-7-9-11
g---------------------------------------3---------------
d-------------------------------------------------------
a-------------------------------------------------------
e-------------------------------------------------------

Guitar 2
e--------------------------------------------------------------------------
b-11-11-11-9-7-11-11-11-9-7-7-7-7-6-4-2-2-2-4-6-7-7-7-6-4-2-2-2-2-4-2-2-2-2
g--------------------------------------------------------------------------
d--------------------------------------------------------------------------
a--------------------------------------------------------------------------
e--------------------------------------------------------------------------



e-----------------------------------
b-4-0-0-0--------------------2-4-6--
g---------3-1-3-3-3---1-3-3-3-------
d-------------------4---------------
a-----------------------------------
e-----------------------------------


Tabbed by neil


Текст, аккорды и табулатура для песни "Im A Cuckoo", исполняет "Belle And Sebastian".
Используемые в песне аккорды можно найти в разделе Как брать аккорды. Аккорды для шестиструнной гитары. Другие песни можно найти на нашем сайте, воспользовавшись алфавитным указателем вверху страницы.


 
Ошибка в тексте? Выделите ошибку и нажмите Ctrl+Enter