Song: When Nightfall Comes Around
Words and Music by: Ted Wulfers 2000beggarsbridgemusic/ASCAP
Performed by: Ted Wulfers and Beggar's Bridge


Chords used in this song:

   Am7
E---0--------|
B---1--------|
G---0--------|
D---2--------|
A---0--------|
E----X-------|

    Em/G
E---3--------|
B---0--------|
G---0--------|
D---2--------|
A---2--------|
E---0--------|

   Fmaj7
E----0------|
B----1------|
G----2------|
D----3------|
A-----------|
E-----------|

     E7
E----0-------|
B----0-------|
G----1-------|
D----0-------|
A----2-------|
E----0-------|

    C
E---0--------|
B---1--------|
G---0--------|
D---2--------|
A---3--------|
E------------|

    Am
E---0-------|
B---1-------|
G---2-------|
D---2-------|
A---0-------|
E---X-------|

     D
E---2--------|
B---3--------|
G---2--------|
D---0--------|
A------------|
E------------|

G7
E-----1-------|
B-----0-------|
G-----0-------|
D-----0-------|
A-----2-------|
E-----3-------|

G
E----3------|
B----0------|
G----0------|
D----0------|
A--- 2------|
E----3------|

Intro.
Am7           Em/G    Fmaj
When nightfall comes around
When nightfall comes around

Verse 1.
C          Am
What a day today has been,
     G                    F
I've got the whole world upon my shoulders
C                         Am
My future's bright but my face is thin,
  G                       F
I picked the wrong day to be hungover
Am          F
My time has come
        C           G
There's got to be a better way of life
Am          F
My time has come
C              G
An' my time is now


Am7           Em/G     Fmaj7
When nightfall comes around
Am7           Em/G     Fmaj7
And daybreak gets you down
Am7           Em/G     Fmaj7
And you feel like you're the only friend in town
Am7           Em/G     Fmaj7
When nightfall comes around

GG Am Bb E7  GG Am Bb E7

Verse 2.
You never know what the nightlife holds
The cards are down and the table is rusted
I guess the key to growing old
Is having lots of fun and not getting busted
My time has come
There's got to be a better way of life
My time has come
An' my time is now

Chorus 2.


Change
D            Bb               D          G7
Take me to a higher mountain, skyscraper tell you later (x4)


Verse 3.
(Repeat verse 1.)

Chorus 3.


Have fun!!!
These are copyrighted lyrics Copyright2000beggarsbridgemusic/ASCAP


Текст, аккорды и табулатура для песни "When Nightfall Comes Around", исполняет "Beggars Bridge".
Используемые в песне аккорды можно найти в разделе Как брать аккорды. Аккорды для шестиструнной гитары. Другие песни можно найти на нашем сайте, воспользовавшись алфавитным указателем вверху страницы.


 
Ошибка в тексте? Выделите ошибку и нажмите Ctrl+Enter