BEE GEES
LONELY DAYS

Album: ONE NIGHT ONLY (LIVE)

BASS TAB BY MEELIS SAARD [[email protected]]

Verse (No bass)
Good morning mister sunshine...

Keyboard plays: (I'm not sure)
E |--------------------------------------------------------------
H |--------------------------------------------------------------
F#|-6----6----6----6----6----3----4----1----2----0----4----4--5--
C#|--------------------------------------------------------------

E |------------------------------------------------------------------|
H |------------------------------------------------------------------|
F#|-6----2----4----0----2----0----4----4--5--6--6--6--6--6--6--6--6--|
C#|------------------------------------------------------------------|

BASS STEPS IN

Chorus 1				Lonely days, lonely nights...
E |----------------------------------------------------------------------
H |----------------------------------------------------------------------
F#|-6--6--6--6--4-6--6--6--6--4-6--6--6--6--5-4--4--0--2--3-4--4--4--4--
C#|----------------------------------------------------------------------

E ----------6-8-6-8-6----------------------------------------------
H ------6-8-----------8-6------------------------------------------
F#-6--8-------------------6--6--6--6--5-4--4--0--2--3-4--4--4--4--
C#-----------------------------------------------------------------

E ----------6-8-6-8-6----------------------------------------------
H ------6-8-----------8-6------------------------------------------
F#-6--8-------------------6--6--6--6--5-4--4--0--0--3-4--4--4--4--
C#-----------------------------------------------------------------
					Where would I be without my women
E ----------6-8-6-8-6-------------------------------------------------|
H ------6-8-----------8-6---------------------------------------------|
F#-6--8-------------------6--6--6--6--5-4--4--0--0--3-4--4--4--4--6--|
C#--------------------------------------------------------------------|

Lonely days, lonely nights...

Good morning...

Chorus 2 (End)
E |-------------------------------------------------------------------
H |-------------------------------------------------------------------
F#|-6--6--6--6--4-6--6--6--6--4-6--6--6--6--4-6-6-6-6-6-6-6-6-6-6-6-6-
C#|-------------------------------------------------------------------
	Lonely days...
E ---------------------------------------------------6-8-6-8-6-----
H -----------------------------------------------6-8-----------8-6-
F#-6--6--6--6--5-4--4--0--2--3-4--4--4--4--6--8-------------------
C#-----------------------------------------------------------------

E ---------------------------------------------------6-8-6-8-6-----
H -----------------------------------------------6-8-----------8-6-
F#-6--6--6--6--5-4--4--0--2--3-4--4--4--4--6--8-------------------
C#-----------------------------------------------------------------

E ---------------------------------------------------6-8-6-8-6-----
H -----------------------------------------------6-8-----------8-6-
F#-6--6--6--6--5-4--4--0--2--3-4--4--4--4--6--8-------------------
C#-----------------------------------------------------------------

E ----------------------------------------------------6-8-6-8-6-----
H ------------------------------------------------6-8-----------8-6-
F#-6--6--6--6--5-4--4--0--1-2-3-4--4--4--4--6--8-------------------
C#------------------------------------------------------------------

E ----------------------------------------------------6-8-6-8-6-----
H ------------------------------------------------6-8-----------8-6-
F#-6--6--6--6--5-4--4--0--1-2-3-4--4--4--4--6--8-------------------
C#------------------------------------------------------------------
					without my women
E ------------------------------------------------------------------|
H ------------------------------------------------------------------|
F#-6--6--6--6--5-4--4--0--2--3-4--4--4--4---6-6-6-6-6keep-playing--|
C#------------------------------------------------------------------|

Thank you.


Текст, аккорды и табулатура для песни "Lonely Days", исполняет "Bee Gees".
Используемые в песне аккорды можно найти в разделе Как брать аккорды. Аккорды для шестиструнной гитары. Другие песни можно найти на нашем сайте, воспользовавшись алфавитным указателем вверху страницы.


 
Ошибка в тексте? Выделите ошибку и нажмите Ctrl+Enter