Jason Becker-Mable's Fatal Fable

E|------------------------------------------------------------------------|
B|------------------------------------------------------------------12-13-|
G|---------------------10----------------------------------10-12-14-------|
D|------------10-12-14----14-12-10----------------10-12-14----------------|
A|12-11-12-14----------------------14-12-11-12-14-------------------------|
E|------------------------------------------------------------------------|


E|------------------------------------------------------------------------|
B|-------------------10---------------------------------------------------|
G|-----------9-10-12----12-10-9---------------9-10------------------------|
D|10-9-10-12--------------------12-10-9-10-12------7-9-10-6-7-9-----------|
A|------------------------------------------------------------------------|
E|------------------------------------------------------------------------|


E|------------------------------------------------------------------------|
B|------------------------------------------------------------------------|
G|--------------------------------7-----9-----10-----10-9-7-10-9-7--------|
D|6-----7-----9-----10-----10-7-6---7-6---7-6----7-6----------------------|
A|--7-5---7-5---7-5----7-5------------------------------------------------|
E|------------------------------------------------------------------------|


E|------------------------------------------------------------------------|
B|------------------------------------------------------------------------|
G|---9-7---------7-------------9-7-9----------------------------10--------|
D|10-----10-9-10---10-9-7-9-10-------6-7-9-------------10-12-14----14-12--|
A|-----------------------------------------12-11-12-14--------------------|
E|------------------------------------------------------------------------|


E|------------------------------------------------------------------------|
B|------------------------------------12-13--------------------10---------|
G|---------------------------10-12-14------------------9-10-12----12-10-9-|
D|10----------------10-12-14----------------10-9-10-12--------------------|
A|---14-12-11-12-14-------------------------------------------------------|
E|------------------------------------------------------------------------|


E|------------------------------------------------------------------------|
B|------------------------------------------------------------------------|
G|--------------9-10----------------------------------------------7-------|
D|12-10-9-10-12------7-9-10-6-7-9-6-----7-----9-----10-----10-7-6---7-6---|
A|----------------------------------7-5---7-5---7-5----7-5----------------|
E|------------------------------------------------------------------------|

E|------------------------------------------------------------------------|
B|------------------------------------------------------------------------|
G|9-----10-----10-9-7-10-9-7----9-7---------7-------------7-9-7-----------|
D|--7-6----7-6---------------10-----10-9-10---9-10-7-9-10-------6-7-9-----|
A|------------------------------------------------------------------------|
E|------------------------------------------------------------------------|

E|------------------------------------------------------------------------|
B|------------------------------------------------------------------------|
G|---------------------10--------------------------------9----------------|
D|------------10-12-14----14-12-10---------------9-10-12---12-10-9--------|
A|12-11-12-14----------------------14-10-9-10-12-------------------12-----|
E|------------------------------------------------------------------------|

E|------------------------------------------------------------------------|
B|------------------------------------------------------------------------|
G|------------5-7-5---------------------------4-5-6-5-6-7-6-7-8-----------|
D|------6-7-9-------9-7-6-7-9-10-6-7-9-7-9-10-----------------------------|
A|8-7-8-------------------------------------------------------------------|
E|------------------------------------------------------------------------|


E|----7-12-7---16-12----------12-13-12-10---------------------------------|
B|--9--------9-------12----12-------------13-12-10------------------------|
G|9---------------------13-------------------------12-10-9----------------|
D|---------------------------------------------------------12-10-9--------|
A|------------------------------------------------------------------------|
E|------------------------------------------------------------------------|

E|------------------------------------------------------------------------|
B|------------------------------------------------------------------------|
G|------9-----13-9--------9-10-9-7-10-9-7-9-7-----------------------------|
D|--6-9---9-6------9----9---------------------10-9-10-9-------------------|
A|7------------------11---------------------------------------------------|
E|------------------------------------------------------------------------|

E|------------------------------------------------------------------------|
B|------------------------------------------------------------------------|
G|---------------------10--------------------------------9----------------|
D|------------10-12-14----14-12-10---------------9-10-12---12-10-9--------|
A|12-11-12-14----------------------14-10-9-10-12-------------------12-----|
E|------------------------------------------------------------------------|

E|---------------------------------------10-15-10-------------------------|
B|------------------------------------12----------12----------------------|
G|------------5-7-5----------------12----------------12-------------------|
D|------6-7-9-------9-7-6-------12----------------------12----------------|
A|8-7-8-------------------10-14----------------------------14-------------|
E|------------------------------------------------------------------------|

E|15-11----------------------------11-15-10----------------------------10-|
B|------13----------------------13----------12----------------------12----|
G|---------12----------------12----------------12----------------12-------|
D|------------13----------13----------------------12----------12----------|
A|---------------15-10-15----------------------------14-10-14-------------|
E|------------------------------------------------------------------------|

E|15-11----------------------------11----10-15----11-15----10-15----------|
B|------13----------------------13----12-------13-------12----------------|
G|---------12----------------12-------------------------------------------|
D|------------13----------13----------------------------------------------|
A|---------------15-10-15-------------------------------------------------|
E|------------------------------------------------------------------------|

E|---11-15----10-15----11-15----10-15----11-15-------------------------------|
B|13-------12-------13-------12-------13-------------------------------------|
G|---------------------------------------------------------------------------|
D|---------------------------------------------------------------------------|
A|---------------------------------------------------------------------------|
E|------------------------------------------------------------------------| -|

Transcribed by David M. Bunker

This part starts at about 1:13 into the song, it is 100 percent correct,I even slowed it
down on a computer program to ensure accuracy. These are sixteenth note triplets all
the way through I'm not sure what the BPM is but the notes are played fast and clean.
This part of the song is in A minor,sometimes Jason uses the A harmonic minor wherever
the G sharp notes are located.For the last arpeggios you could also tap them if picking
gets a little too hard.This is one of my favorite Jason Becker songs,I know most of the
other parts and I will post them soon. You can reach me at [email protected],anyways
Good Luck!


Текст, аккорды и табулатура для песни "Mables Fatal Fable", исполняет "Becker Jason".
Используемые в песне аккорды можно найти в разделе Как брать аккорды. Аккорды для шестиструнной гитары. Другие песни можно найти на нашем сайте, воспользовавшись алфавитным указателем вверху страницы.


 
Ошибка в тексте? Выделите ошибку и нажмите Ctrl+Enter